System Of A Down - Suite Pee Chords & Tabs

 

Suite Pee Chords & Tabs

System Of A Down Chords & Tabs

Version: 9 Type: Tab 0 ratings
1 star 2 stars 3 stars 4 stars 5 stars
comments

Suite Pee Tab

   
Song     : Suite-Pee
Artis    : System Of A Down
Album    : System Of a down
Guitarist: Daron  Malakian
Tuning   : CGCFAD (thick to thin)
Timing   : 4/4
Tabbed   : Simon Skipper

not too hard at all

*   -   Harmonic
/   -   Slide (up or down)
p   -   Pull-off
^   -   Bend
~   -   Ring
p.m -   Palm Mute
`   -   Pinch Harmonics

Intro

  this is 100% correct if you get it right!

D|------------------------|
A|.*********************--|
F|-55/44/33/22/33/44/55/--|
C|------------------------|
G|.-----------------------|
C|------------------------|

D|------------------------|
A|------------------------|
F|-*********************--|
C|-55/44/33/22/33/44/55/--|
G|------------------------|
C|------------------------|

D|------------------------|
A|------------------------|
F|------------------------|
C|-********************---|
G|-55/44/33/22/33/44/55/--|
C|------------------------|

D|-------------------------|
A|------------------------.|
F|-*********************---| play once more
C|-55/44/33/22/33/44/55/---|
G|------------------------.|
C|-------------------------|

Main riff

D|-------------------|          D|-------------------|
A|.-----------------.|          A|-------------------|
F|-------------------|          F|----------------7--|
C|--0-0-0-0-1-0-1----| x3 then: C|--0-0-0-0-1-0-1-7--|
G|.-0-0-0-0-1-0-1---.|          G|--0-0-0-0-1-0-1-5--|
C|--0-0-0-0-1-0-1----|          C|--0-0-0-0-1-0-1----|


Verse

 i know this seems a bit hight, but i saw an
interview with Daron and he played it up here!

D|--------------------------------------------^-----|
A|.-------------------------------------------19---.|
F|--------------------------------------------------|
C|--------------------------------------------------| x4
G|.-17-17-17-17-18p17-18----17-17-17-17-18p17------.|
C|--------------------------------------------------|

Chorus

same as the main riff

D|-------------------|          D|-------------------|
A|.-----------------.|          A|-------------------|
F|-------------------|          F|----------------7--|
C|--0-0-0-0-1-0-1----| x3 then: C|--0-0-0-0-1-0-1-7--|
G|.-0-0-0-0-1-0-1---.|          G|--0-0-0-0-1-0-1-5--|
C|--0-0-0-0-1-0-1----|          C|--0-0-0-0-1-0-1----|

Verse
[ Tab from: http://www.guitartabs.cc/tabs/s/system_of_a_down/suite_pee_tab_ver_9.html ]
Chorus

Bridge (1:03)
 								         p.m
D|-----------------------------|          D|------------------------------|
A|.---------------------------.|          A|------------------------------|
F|-----------------------------|          F|------------------------------|
C|--0-1-0--0~--5-4~------------| x3 then: C|--0-1-0--0~--5-4~-------------|
G|.-0-1-0--0~--5-4~-----------.|          G|--0-1-0--0~--5-4~-------------|
C|--0-1-0--0~--5-4~------------|          C|--0-1-0--0~--5-4~-------------|

Bridge prt.2 (1:17)

   p.m all 					                              dont p.m
D|-----------------------------|          D|------------------------------|
A|.---------------------------.|          A|------------------------------|
F|-----------------------------|          F|----------------------12~~~---|
C|--0-1-0--0~--5-4~------------| x3 then: C|--0-1-0--0~--5-4~--------^----|
G|.-0-1-0--0~--5-4~-----------.|          G|--0-1-0--0~--5-4~--------9~---|
C|--0-1-0--0~--5-4~------------|          C|--0-1-0--0~--5-4~-------------|

  p.m all                                                  dont p.m
D|-----------------------------|          D|------------------------------|
A|.---------------------------.|          A|------------------------------|
F|-----------------------------|          F|------------------------------|
C|--0-1-0--0~--5-4~------------| x3 then: C|--0-1-0--0~--5-4~-------------|
G|.-0-1-0--0~--5-4~-----------.|          G|--0-1-0--0~--5-4~-------------|
C|--0-1-0--0~--5-4~------------|          C|--0-1-0--0~--5-4~-------------|

Bridge (this time no p.m at all!) (1:43)

Bridge prt.3 (1:56)
                      dont play this last time
D|---------------------`--------|          
A|.------------8-7-----7-------.|          
F|--7-8-7--7~--7-6--------------|          
C|--7-8-7--7~--5-4--------------| 
G|.-5-6-5--5~------------------.|          
C|------------------------------|   

Main Riff      

Outro 

dont worry that IS seventeen and eightteen

D|------------------------^-----|
A|.-----------------------19---.|
F|------------------------------|
C|------------------------------| x8
G|.-171717171717171718p17------.|
C|------------------------------|

THE END!    \m/

any probs?
E-mail 
play_field@hotmail.com
Comments