System Of A Down - Suite Pee Chords & Tabs

 

Suite Pee Chords & Tabs

System Of A Down Chords & Tabs

Version: 5 Type: Tab 0 ratings
1 star 2 stars 3 stars 4 stars 5 stars
comments

Suite Pee Tab

   
System of a down
Suite-Pee
28/11/02
rmwaters3000@hotmail.com
Tuning- c g c f a d

I have decided to share the soad tabs from the tab books so you won't be
playing a song and come across an anoying note. Some might call this cheating
but at least it's right.
Intro
Harm.
 ------------------------         ----------
----------------------------------------------
----------------------------------------------
--5--5--5--4--3.1-2.6-1.9-0--0--1.9-2.6-4--5--
----------------------------------------------
----------------------------------------------
----------------------------------------------
Harm
  ----------------------           ---------
----------------------------------------------
----------------------------------------------
----------------------------------------------
--5--5--5--4--3.1-2.3-1.9-0--0--1.9-3.1-4--5--
----------------------------------------------
----------------------------------------------
Harm
  -----------------------      -------------
----------------------------------------------
----------------------------------------------
----------------------------------------------
----------------------------------------------
--5--5--4--4--3.1-2.6-1.9-0--1.9-2.6-4--5--5--
----------------------------------------------
Harm
   ------------------       ----------------
----------------------------------------------
----------------------------------------------
----------------------------------------------(I don't understand the . 
-5--5--4--3.1-2.6-1.9-0--0--1.9-3.1-4--5--5---  either but it can't be
----------------------------------------------  that hard.)
----------------------------------------------

Rhy Fig 1
---------------|---------------|---------------|----------------|
---------------|---------------|---------------|----------------|
---------------|---------------|---------------|----------------|
-4-4-4-4-5-4-5-|-4-4-4-4-5-4-5-|-4-4-4-4-5-4-5-|-4-4-4-4-12\-4^-|
-5-5-5-5-6-5-6-|-5-5-5-5-6-5-6-|-5-5-5-5-6-5-6-|-5-5-5-5-12\-5^-|
---------------|---------------|---------------|----------------|

---------------|---------------|---------------|-----------------|
---------------|---------------|---------------|-----------------|
---------------|---------------|---------------|-----------------|
-4-4-4-4-5-4-5-|-4-4-4-4-5-4-5-|-4-4-4-4-5-4-5-|-4-4-4-4-----0-0-|
-5-5-5-5-6-5-6-|-5-5-5-5-6-5-6-|-5-5-5-5-6-5-6-|-5-5-5-5-16\-0-0-|
---------------|---------------|---------------|---------16\-0-0-|End Rhy Fig 1

Verse
---------------|------------------10^|--------------------|-----------------10^|
---------------|---------------------|--------------------|--------------------|
-7-7--7-7-8-7-8|7--7--7-7-7--8---7---|7--7--7-7-7--8--7--8|7--7--7-7-7--8--7---|
-0-------------|0--------------------|--------------------|--------------------|
---------------|---------------------|--------------------|--------------------|
---------------|---------------------|--------------------|--------------------|
I had an outer body ex-per-ience the other day.Her name was Jesus.      And for
Crossed&terrored ravages of architecture lend me their blades             We're

--------------------|---------------10^|-------------------|-----------------10|
--------------------|------------------|-------------------|-------------------|
7--7--7-7-7--8--7--8|7--7--7-7-7-8--7--|7--7--7-7-7--8--/17|7--7--7-7-7--8--7--|
--------------------|------------------|-------------------|-------------------|
--------------------|------------------|-------------------|-------------------|
--------------------|------------------|-------------------|-------------------|
her       every-one  cried,   every-one cried,   every-one  cried-
crossed&tertoted rav-ages of architecture. Hoist a-round spade-

Chorus - Rhy Fig 1
1st chorus ending
-----------------|-------------------|
-----------------|-------------------|
-----------------|-------------------|
--4-4-4-4-5-5-5--|--4-4-4-4-----0-0--|
--5-5-5-5-6-5-6--|--5-5-5-5-13\-0-0--|
-----------------|----------13\-0-0--|
die her philosophy die.-
[ Tab from: http://www.guitartabs.cc/tabs/s/system_of_a_down/suite_pee_tab_ver_5.html ]
2nd chorus ending
-----------------|--------------------|
-----------------|--------------------|
-----------------|--------------------|
--4-4-4-4-5-4-5--|--4-4-4-4-5-4-4^----|
--5-5-5-5-6-5-6--|--5-5-5-5-6-5-5^----|
-----------------|--------------------|
die her philosophy die.-

Interlude                                                Slight p.m.-
-----------------|-----------------|-----------------|-----------------|
-----------------|-----------------|-----------------|-----------------|
-----------------|-----------------|-----------------|-----------------|
-0-1-0--0-5-4----|-0-1-0--0-5-4----|-0-1-0--0-5-4----|-0-1-0--0-5-4----|
-0-1-0--0-5-4----|-0-1-0--0-5-4----|-0-1-0--0-5-4----|-0-1-0--0-5-4----|
-0-1-0--0-5-4----|-0-1-0--0-5-4----|-0-1-0--0-5-4----|-0-1-0--0-5-4----|
Die.              Die.              Die.              Why?-----------

Slight p.m.--                                        [1st time}
-----------------|-----------------|-----------------|------------------------|
-----------------|-----------------|-----------------|------------------------|
-----------------|-----------------|-----------------|------------------------|
-0-1--0-0-5--4---|-0-1--0-0-5--4---|-0-1--0-0-5--4---|-0-1--0--0-5--4/4-5--4^~|
-0-1--0-0-5--4---|-0-1--0-0-5--4---|-0-1--0-0-5--4---|-0-1--0--0-5--4/4-------|
-0-1--0-0-5--4---|-0-1--0-0-5--4---|-0-1--0-0-5--4---|-0-1--0--0-5--4/4-------|
    Lie naked     on the floor and let the messiah go- through our souls.
[2nd time]
---------------------| -----------------|-----------------|--------------------|
---------------------| -----------------|-----------------|--------------------|
---------------------| -----------------|-----------------|--------------------|
-0-1--0-0-5----------| -0-1--0-0-5---4--|-0-1--0-0-5---4--|-0-1--0-0-5---4-----|
-0-1--0-0-5----------| -0-1--0-0-5---4--|-0-1--0-0-5---4--|-0-1--0-0-5---4-----|
-0-1--0-0-5-4(4)^----| -0-1--0-0-5---4--|-0-1--0-0-5---4--|-0-1--0-0-5---4-----|
all through our souls. Die-              Die-              Die-           Why-

--------------------------------|--------------------------------|
--------------------------------|--------------------------------|
----------------------------7-7-|7-8-7--7--12--11------11^(11)~--|
--0-1-0--0--5--4------------x-x-|x-x-x--x---x---x-------x--------|
--0-1-0--0--5--4------12\---5-5-|5-6-5--5--10---9-------9--------|
--0-1-0--0--5--4------12\-------|--------------------------------|
                                       I want to fuck   my
--------------------------|---------------------------|----------------------|
----------------------(ph)|-----------------------(ph)|----------------------|
-7-8-7--7--12--11------11~|-7-8-7----7--12--11-----11~|-7-8-7--7--12--11-----|
-x-x-x--x---x---x---------|-x-x-x----x---x---x--------|-x-x-x--x---x---x-----|
-5-6-5--5--10---9---------|-5-6-5----5--10---9--------|-5-6-5--5--10---9-----|
--------------------------|---------------------------|----------------------|
way to the garden   'Cause everyone       needs      a mother-     fucker.

Bridge - Rhy Fig 1

Outro (Guitar 1)
----------------------10-10-|    |-------------------10-10-|
----------------------------|    |--------------------x--x-|
----7--7--7--7--8--7--------|(x3)|--7--7--7--7--8--7--7--7-|
----------------------------|    |-------------------------|
----------------------------|    |-------------------------|
----------------------------|    |-------------------------|
The following of a christ         The following of a christ

---------------------10-10-|    |-----------------------|
----------------------x--x-|    |-----------------------|
----7--7--7--7--8--7--7--7-|(x3)|-7--7------------------|
---------------------------|    |-------4--4--5--4--5---|
---------------------------|    |-------5--5--6--5--6---|
---------------------------|    |-----------------------|
The falling of christ.           The falling of christ
(Guitar 2 over last line)
-----------------------|------------------|---------------|------------------|
-----------------------|------------------|---------------|------------------|
-----------------------|------------------|---------------|------------------|
-----------------------|------------------|---------------|---0--0--1--0--1--|
--0--------------------|------------------|---------------|---0--0--1--0--1--|
--0-------------0------|--0---------------|--0------------|---0--0--1--0--1--|

I hope you understand that cause it's really not that hard. Feel free to e-mail
 me or leave comments.
                             fin
Comments