System Of A Down - Suite Pee Chords & Tabs

 

Suite Pee Chords & Tabs

System Of A Down Chords & Tabs

Version: 10 Type: Tab

Suite Pee Tab

   
Tabbed by: Mike (Nirvana_Rulez)
 
Guitar I: Distorted (C-G-C-F-A-D)
Guitar II: Distorted (C-G-C-F-A-D) 

Intro:
Gtr. I 
|----------------|----------------|----------------|
|----------------|----------------|----------------|
|5\2\5-----------|--------5\2\5---|----------------|
|------5\2\5-----|--5\2\5-------5\|2\5-------5\2\5-|
|------------5\2\|5---------------|----5\2\5-------|
|----------------|----------------|----------------|

 **All tremelo picking and natural harmonics**

|----------------|----------------|----------------|----------------|
|----------------|----------------|----------------|----------------|
|----------------|----------------|----------------|------------5---|
|0-0-0-0-1-0-1---|0-0-0-0-1-0-1---|0-0-0-0-1-0-1---|0-0-0-0-1-0-5---|
|0-0-0-0-1-0-1---|0-0-0-0-1-0-1---|0-0-0-0-1-0-1---|0-0-0-0-1-0-----|
|0-0-0-0-1-0-1---|0-0-0-0-1-0-1---|0-0-0-0-1-0-1---|0-0-0-0-1-0-----|

|----------------|----------------|----------------|----------------|
|----------------|----------------|----------------|----------------|
|----------------|----------------|----------------|------------5\--|
|0-0-0-0-1-0-1---|0-0-0-0-1-0-1---|0-0-0-0-1-0-1---|0-0-0-0-1-0-5\--|
|0-0-0-0-1-0-1---|0-0-0-0-1-0-1---|0-0-0-0-1-0-1---|0-0-0-0-1-0-----|
|0-0-0-0-1-0-1---|0-0-0-0-1-0-1---|0-0-0-0-1-0-1---|0-0-0-0-1-0-----|


Verse:
Gtr. I
|----------------|----------------|----------------|
|----------------|----------------|----------------|
|----------------|----------------|---------19b----|
|----------------|----------------|----------------|
|17-17-17-17-18-1|7-18---17-17-17-|17-18-17--------|
|----------------|----------------|----------------|
 I had an out of body experience

|----------------|----------------|----------------|
|----------------|----------------|----------------|
|----------------|----------------|---------19b----|
|----------------|----------------|----------------|
|17-17-17-17-18-1|7-18---17-17-17-|17-18-17--------|
|----------------|----------------|----------------|
 the other day, her name was jesus       And for her 

|----------------|----------------|----------------|
|----------------|----------------|----------------|
|----------------|----------------|---------19-----|
|----------------|----------------|----------------|
|17-17-17-17-18-1|7-18---17-17-17-|17-18-17--------|
|----------------|----------------|----------------|
 everyone cried, everyone cried 

|----------------|----------------|----------------|
|----------------|----------------|----------------|
|----------------|----------------|---------19b----|
|----------------|----------------|----------------|
|17-17-17-17-18-1|7-18---17-17-17-|17-18-17--------|
|----------------|----------------|----------------|
 everyone cried


Chorus:
Gtr. I
|----------------|----------------|----------------|----------------|
|----------------|----------------|----------------|----------------|
|----------------|----------------|----------------|------------5---|
|0-0-0-0-1-0-1---|0-0-0-0-1-0-1---|0-0-0-0-1-0-1---|0-0-0-0-1-0-5---|
|0-0-0-0-1-0-1---|0-0-0-0-1-0-1---|0-0-0-0-1-0-1---|0-0-0-0-1-0-----|
|0-0-0-0-1-0-1---|0-0-0-0-1-0-1---|0-0-0-0-1-0-1---|0-0-0-0-1-0-----|
 Try her philosophy,Try her philosophy,Try her philosophy, try.

|----------------|----------------|----------------|----------------|
|----------------|----------------|----------------|----------------|
|----------------|----------------|----------------|------------5\--|
|0-0-0-0-1-0-1---|0-0-0-0-1-0-1---|0-0-0-0-1-0-1---|0-0-0-0-1-0-5\--|
|0-0-0-0-1-0-1---|0-0-0-0-1-0-1---|0-0-0-0-1-0-1---|0-0-0-0-1-0-----|
|0-0-0-0-1-0-1---|0-0-0-0-1-0-1---|0-0-0-0-1-0-1---|0-0-0-0-1-0-----|
 You die for her philosophy,Die for her philosophy,Die her philosphy die.


2nd Verse:
Gtr. I
|----------------|----------------|----------------|
|----------------|----------------|----------------|
|----------------|----------------|---------19-----|
|----------------|----------------|----------------|
|17-17-17-17-18-1|7-18---17-17-17-|17-18-17--------|
|----------------|----------------|----------------|
 Crossed and terrored ravages of architecture

|----------------|----------------|----------------|
|----------------|----------------|----------------|
|----------------|----------------|---------19b----|
|----------------|----------------|----------------|
|17-17-17-17-18-1|7-18---17-17-17-|17-18-17--------|
|----------------|----------------|----------------|
 lend me thy blades

|----------------|----------------|----------------|
|----------------|----------------|----------------|
|----------------|----------------|---------19b----|
|----------------|----------------|----------------|
|17-17-17-17-18-1|7-18---17-17-17-|17-18-17--------|
|----------------|----------------|----------------|
 We’re crossed and terrored ravages of architecture

|----------------|----------------|----------------|
|----------------|----------------|----------------|
|----------------|----------------|---------19b----|
|----------------|----------------|----------------|
|17-17-17-17-18-1|7-18---17-17-17-|17-18-17--------|
|----------------|----------------|----------------|
 hoist around the spade


Chorus:
Gtr. I
|----------------|----------------|----------------|----------------|
|----------------|----------------|----------------|----------------|
|----------------|----------------|----------------|------------5---|
|0-0-0-0-1-0-1---|0-0-0-0-1-0-1---|0-0-0-0-1-0-1---|0-0-0-0-1-0-5---|
|0-0-0-0-1-0-1---|0-0-0-0-1-0-1---|0-0-0-0-1-0-1---|0-0-0-0-1-0-----|
|0-0-0-0-1-0-1---|0-0-0-0-1-0-1---|0-0-0-0-1-0-1---|0-0-0-0-1-0-----|
 Try her philosophy,Try her philosophy,Try her philosophy, try.
[ Tab from: http://www.guitartabs.cc/tabs/s/system_of_a_down/suite_pee_tab_ver_10.html ]
|----------------|----------------|----------------|----------------|
|----------------|----------------|----------------|----------------|
|----------------|----------------|----------------|------------5\--|
|0-0-0-0-1-0-1---|0-0-0-0-1-0-1---|0-0-0-0-1-0-1---|0-0-0-0-1-0-5\--|
|0-0-0-0-1-0-1---|0-0-0-0-1-0-1---|0-0-0-0-1-0-1---|0-0-0-0-1-0-----|
|0-0-0-0-1-0-1---|0-0-0-0-1-0-1---|0-0-0-0-1-0-1---|0-0-0-0-1-0-----|
 You die for her philosophy,Die for her philosophy,Die her philosphy die.


Bridge:
Gtr. I
|----------------|----------------|----------------|----------------| 
|----------------|----------------|----------------|----------------|
|----------------|----------------|----------------|----------------|
|----------------|0-1-0-0-5-4-----|0-1-0-0-5-4-----|0-1-0-0-5-4-----|
|----------------|0-1-0-0-5-4-----|0-1-0-0-5-4-----|0-1-0-0-5-4-----|
|----------------|0-1-0-0-5-4-----|0-1-0-0-5-4-----|0-1-0-0-5-4-----|
                  Die!             Die!             Die!
         PM|
|----------------|
|----------------|
|----------------|
|0-1-0-0-5-4-----|  
|0-1-0-0-5-4-----|
|0-1-0-0-5-4-----|
 Why?!   
 
 PM--------|      PM--------|      PM--------|      PM--------|
|----------------|----------------|----------------|----------------------|
|----------------|----------------|----------------|----------------------|
|----------------|----------------|----------------|----------------------|
|0-1-0-0-5-4-----|0-1-0-0-5-4-----|0-1-0-0-5-4-----|0-1-0-0-5-4---5-4b5r4-|
|0-1-0-0-5-4-----|0-1-0-0-5-4-----|0-1-0-0-5-4-----|0-1-0-0-5-4-----------|
|0-1-0-0-5-4-----|0-1-0-0-5-4-----|0-1-0-0-5-4-----|0-1-0-0-5-4-----------|
 lie naked        on the floor And let the messiah  go through our souls


 PM--------|     PM--------|       PM--------|      PM------|
|----------------|----------------|----------------|-----------------|
|----------------|----------------|----------------|-----------------|
|----------------|----------------|----------------|-----------------|
|0-1-0-0-5-4-----|0-1-0-0-5-4-----|0-1-0-0-5-4-----|0-1-0-0-5-4b-4---|
|0-1-0-0-5-4-----|0-1-0-0-5-4-----|0-1-0-0-5-4-----|0-1-0-0-5-4b-4---|
|0-1-0-0-5-4-----|0-1-0-0-5-4-----|0-1-0-0-5-4-----|0-1-0-0-5-4b-4---|
 lie naked        on the floor And let the messiah  go all through our souls


|----------------|----------------|----------------|-----------------| 
|----------------|----------------|----------------|-----------------|
|----------------|----------------|----------------|-----------------|
|0-1-0-0-5-4-----|0-1-0-0-5-4-----|0-1-0-0-5-4-----|0-1-0-0-5-4------|
|0-1-0-0-5-4-----|0-1-0-0-5-4-----|0-1-0-0-5-4-----|0-1-0-0-5-4------|
|0-1-0-0-5-4-----|0-1-0-0-5-4-----|0-1-0-0-5-4-----|0-1-0-0-5-4------|
 Die!like a       Die! Like a      Die! Like a      Why?! Like a
    mother fucker    mother fucker    mother fucker    mother fucker


|----------------|----------------|----------------|
|----------------|----------------|----------------|
|7-8-7-7-12-11b12|r11--7-8-7-7-12-|11--*11---------|
|x-x-x-x--x--x---|-----x-x-x-x--x-|-x--------------|
|5-6-5-5-10--9b10|r9---5-6-5-5-10-|-9--------------|
|----------------|----------------|----------------| 
I want to fuck my way to the garden  

|----------------|----------------|----------------|
|----------------|----------------|----------------|
|7-8-7-7-12-11---|*11--7-8-7-7-12-|11--------------|
|x-x-x-x--x--x---|-----x-x-x-x--x-|-x--------------|
|5-6-5-5-10--9---|-----5-6-5-5-10-|-9--------------|
|----------------|----------------|----------------|
Cause everyone needs a mother......FUCKER!


Outro:
Gtr. I
|----------------|----------------|----------------|----------------|
|----------------|----------------|----------------|----------------|
|----------------|----------------|----------------|------------5---|
|0-0-0-0-1-0-1---|0-0-0-0-1-0-1---|0-0-0-0-1-0-1---|0-0-0-0-1-0-5---|
|0-0-0-0-1-0-1---|0-0-0-0-1-0-1---|0-0-0-0-1-0-1---|0-0-0-0-1-0-----|
|0-0-0-0-1-0-1---|0-0-0-0-1-0-1---|0-0-0-0-1-0-1---|0-0-0-0-1-0-----|

|----------------|----------------|----------------|----------------|
|----------------|----------------|----------------|----------------|
|----------------|----------------|----------------|------------5\--|
|0-0-0-0-1-0-1---|0-0-0-0-1-0-1---|0-0-0-0-1-0-1---|0-0-0-0-1-0-5\--|
|0-0-0-0-1-0-1---|0-0-0-0-1-0-1---|0-0-0-0-1-0-1---|0-0-0-0-1-0-----|
|0-0-0-0-1-0-1---|0-0-0-0-1-0-1---|0-0-0-0-1-0-1---|0-0-0-0-1-0-----|

|----------------|----------------|----------------|
|----------------|----------------|----------------|
|----------------|--19b-----------|---------19b----|
|----------------|----------------|----------------|
|17-17-17-17-18-1|7-----17-17-17-1|7-18-17---------|
|----------------|----------------|----------------|
 The following of a christ The following of a christ

|----------------|----------------|----------------|
|----------------|----------------|----------------|
|----------------|--19b-----------|---------19b----|
|----------------|----------------|----------------|
|17-17-17-17-18-1|7-----17-17-1|7-|17-18-17--------|
|----------------|----------------|----------------|
 The following of a christ The following of a christ

|----------------|----------------|----------------|
|----------------|----------------|----------------|
|---------------1|9b--------------|--19b-----------|
|----------------|----------------|----------------|
|17-17-18-17-17--|---17-17-18-17-1|7---------------|
|----------------|----------------|----------------|
 the falling of christ   the falling of christ  

|----------------|----------------|----------------|
|----------------|----------------|----------------|
|---------------1|9b--------------|----------------|
|----------------|----------------|----------------|
|17-17-18-17-17--|---17-17-18-17-1|7-17------------|
|----------------|----------------|----------------|
| the falling of christ   the falling of christ! 
|
|
|Gtr. II                       PM-------|
|----------------|----------------|----------------|
|----------------|----------------|----------------|
|----------------|----------------|----------------|
|----------------|----------------|----------------|
|----------------|-------------0-0|-0-0-0----------|
|----------------|-------------0-0|-0-0-0----------|

Legend
-------
PM  - Palm Mute
*   - Artificial Harmonic
b   - bend 
b#r - bend and release
\   - slide down from #