System Of A Down - Suggestions Chords & Tabs

 

Suggestions Chords & Tabs

System Of A Down Chords & Tabs

Version: 9 Type: Tab 0 ratings
1 star 2 stars 3 stars 4 stars 5 stars
comments

Suggestions Tab

   
|Artist:    System Of A Down                                              |
|Song:      Suggestions (04)                                              |
|Album:     System Of A Down                                              | 
|Tabbed by: mAgGoT                                                        |  
|Tuning:    D-A-F-C-G-C                                                   |
___________________________________________________________________________

|--7---7---7---7---7---7---7---7------------------------------------------|
|----0-------0-------0-------0--------------------------------------------|
|9-------9-------9-------9------------------------------------------------|
|-------------------------------------------------------------------------|
|-------------------------------------------------------------------------|
|-------------------------------------------------------------------------|

|---7---7----7---7----7---7----7---7--------------------------------------|
|-----0--------0--------0--------0----------------------------------------|
|10-------10-------10-------10--------------------------------------------|
|-------------------------------------------------------------------------|
|-------------------------------------------------------------------------|
|-------------------------------------------------------------------------|

|--7---7---7---7---7---7---7---7------------------------------------------|
|----0-------0-------0-------0--------------------------------------------|
|9-------9-------9-------9------------------------------------------------|
|-------------------------------------------------------------------------|
|-------------------------------------------------------------------------|
|-------------------------------------------------------------------------|

|---7---7----7---7----7---7----7---7--------------------------------------|
|-----0--------0--------0--------0----------------------------------------|
|10-------10-------10-------10--------------------------------------------|
|-------------------------------------------------------------------------|
|-------------------------------------------------------------------------|
|-------------------------------------------------------------------------|

|--------------------------------palm-mute--------------------------------|
|-------------------------------------------------------------------------|
|-------------------------------------------------------------------------|
|--9---9---9---9---9---9---9---9---10---10---10---10---10---10---10---10--|
|7---0---7---0---7---0---7---0---8----0----8----0----8----0----8----0-----|
|-------------------------------------------------------------------------|

|--------------------------------palm-mute--------------------------------|
|-------------------------------------------------------------------------|
|-------------------------------------------------------------------------|
|--9---9---9---9---9---9---9---9---10---10---10---10---10---10---10---10--|
|7---0---7---0---7---0---7---0---8----0----8----0----8----0----8----0-----|
|-------------------------------------------------------------------------|

|-------------------------------------------------------------------------|
|-------------------------------------------------------------------------|
|-------------------------------------------------------------------------|
|2-2-2-2-2-2-2-2-3-3-3-3-3-3-3-3-2-2-2-2-2-2-2-2-3-3-3-3-3-3-3-3----------|
|2-2-2-2-2-2-2-2-3-3-3-3-3-3-3-3-2-2-2-2-2-2-2-2-3-3-3-3-3-3-3-3----------|
|2-2-2-2-2-2-2-2-3-3-3-3-3-3-3-3-2-2-2-2-2-2-2-2-3-3-3-3-3-3-3-3----------|


|--------------------------------palm-mute--------------------------------|
|-------------------------------------------------------------------------|
|-------------------------------------------------------------------------|
|--9---9---9---9---9---9---9---9---10---10---10---10---10---10---10---10--|
|7---0---7---0---7---0---7---0---8----0----8----0----8----0----8----0-----|
|-------------------------------------------------------------------------|

|--------------------------------palm-mute--------------------------------|
|-------------------------------------------------------------------------|
|-------------------------------------------------------------------------|
|--9---9---9---9---9---9---9---9---10---10---10---10---10---10---10---10--|
|7---0---7---0---7---0---7---0---8----0----8----0----8----0----8----0-----|
|-------------------------------------------------------------------------|

|-------------------------------------------------------------------------|
|-------------------------------------------------------------------------|
|-------------------------------------------------------------------------|
|2-2-2-2-2-2-2-2-3-3-3-3-3-3-3-3-2-2-2-2-2-2-2-2-3-3-3-3-3-3-3-3----------|
|2-2-2-2-2-2-2-2-3-3-3-3-3-3-3-3-2-2-2-2-2-2-2-2-3-3-3-3-3-3-3-3----------|
|2-2-2-2-2-2-2-2-3-3-3-3-3-3-3-3-2-2-2-2-2-2-2-2-3-3-3-3-3-3-3-3----------|
[ Tab from: http://www.guitartabs.cc/tabs/s/system_of_a_down/suggestions_tab_ver_9.html ]
|-------------------------------------------------------------------------|
|-------------------------------------------------------------------------|
|8---8---8---8---8-8-11---11---11---11---11-11----------------------------|
|-----------------------------------------------------------(x2)----------|
|6---6---6---6---6-6--9----9----9----9----9--9----------------------------|
|-------------------------------------------------------------------------|

|--7---7---7---7---7---7---7---7------------------------------------------|
|----0-------0-------0-------0--------------------------------------------|
|9-------9-------9-------9------------------------------------------------|
|-------------------------------------------------------------------------|
|-------------------------------------------------------------------------|
|-------------------------------------------------------------------------|

|---7---7----7---7----7---7----7---7--------------------------------------|
|-----0--------0--------0--------0----------------------------------------|
|10-------10-------10-------10--------------------------------------------|
|-------------------------------------------------------------------------|
|-------------------------------------------------------------------------|
|-------------------------------------------------------------------------|

|--7---7---7---7---7---7---7---7------------------------------------------|
|----0-------0-------0-------0--------------------------------------------|
|9-------9-------9-------9------------------------------------------------|
|-------------------------------------------------------------------------|
|-------------------------------------------------------------------------|
|-------------------------------------------------------------------------|

|---7---7----7---7--7>>>>-------------------------------------------------|
|-----0--------0----0>>>>-------------------------------------------------|
|10-------10--------9>>>>-------------------------------------------------|
|-------------------------------------------------------------------------|
|-------------------------------------------------------------------------|
|-------------------------------------------------------------------------|

|-------------------------------------------------------------------------|
|-------------------------------------------------------------------------|
|-------------------------------------------------------------------------|
|2-2-2-2-2-2-2-2-3-3-3-3-3-3-3-3-2-2-2-2-2-2-2-2-3-3-3-3-3-3-3-3----------|
|2-2-2-2-2-2-2-2-3-3-3-3-3-3-3-3-2-2-2-2-2-2-2-2-3-3-3-3-3-3-3-3----------|
|2-2-2-2-2-2-2-2-3-3-3-3-3-3-3-3-2-2-2-2-2-2-2-2-3-3-3-3-3-3-3-3----------|

|--------------------------------palm-mute--------------------------------|
|-------------------------------------------------------------------------|
|------------------------------4-------------------------------5-----(x2)-|
|2-2-2-2-2-2-2-2-2-2-2-2-2-2-2-----3-3-3-3-3-3-3-3-3-3-3-3-3-3------------|
|-------------------------------------------------------------------------|
|-------------------------------------------------------------------------|

|--------------------------------palm-mute--------------------------------|
|-------------------------------------------------------------------------|
|-------------------------------------------------------------------------|
|--9---9---9---9---9---9---9---9---10---10---10---10---10---10---10---10--|
|7---0---7---0---7---0---7---0---8----0----8----0----8----0----8----0-----|
|-------------------------------------------------------------------------|

|--------------------------------palm-mute--------------------------------|
|-------------------------------------------------------------------------|
|-------------------------------------------------------------------------|
|--9---9---9---9---9---9---9---9---10---10---10---10---10---10---10---10--|
|7---0---7---0---7---0---7---0---8----0----8----0----8----0----8----0-----|
|-------------------------------------------------------------------------|

|-------------------------------------------------------------------------|
|-------------------------------------------------------------------------|
|-------------------------------------------------------------------------|
|2-2-2-2-2-2-2-2-3-3-3-3-3-3-3-3-2-2-2-2-2-2-2-2-3-3-3-3-3-3-3-3----------|
|2-2-2-2-2-2-2-2-3-3-3-3-3-3-3-3-2-2-2-2-2-2-2-2-3-3-3-3-3-3-3-3----------|
|2-2-2-2-2-2-2-2-3-3-3-3-3-3-3-3-2-2-2-2-2-2-2-2-3-3-3-3-3-3-3-3----------|

|-------------------------------------------------------------------------|
|-------------------------------------------------------------------------|
|8---8---8---8---8-8-11---11---11---11---11-11----------------------------|
|-----------------------------------------------------------(x2)----------|
|6---6---6---6---6-6--9----9----9----9----9--9----------------------------|
|-------------------------------------------------------------------------|

Thanks for using this Tab. If there are any comments, questions etc. e-mail
me at: stdmsojd@web.de . System Of A Down is the best band ever!!!
-mAgGoT-
Comments