System Of A Down - Suggestions Chords & Tabs

 

Suggestions Chords & Tabs

System Of A Down Chords & Tabs

Version: 7 Type: Tab 0 ratings
1 star 2 stars 3 stars 4 stars 5 stars
comments

Suggestions Tab

   
Suggestions-System Of A Down
System Of A Down

Drop C:
C G C F A D

Intro: x2

Riff A: gtr. 1 (acoustic)

d----------------------------------------------
a-------0----------0----------0----------0-----
f----16---16----16---16----16---16----16---16--
c-14---------14---------14---------14----------
g----------------------------------------------
c----------------------------------------------

gtr. 2 (dist.)

d----------------------------------------------
a-------0----------0----------0----------0-----
f-----4----------4----------4----------4-------
c----------------------------------------------
g----------------------------------------------
c----------------------------------------------

Riff A cont.

d----------------------------------------------
a-------0----------0----------0----------0-----
f----16---16----16---16----16---16----16---16--
c-15---------15---------15---------15----------
g----------------------------------------------
c----------------------------------------------

gtr. 2

d----------------------------------------------
a-------0----------0----------0----------0-----
f-----4----------4----------4----------4-------
c----------------------------------------------
g----------------------------------------------
c----------------------------------------------

gtr. 2 (2nd time)

d------------------------------------0-0-0-0-0-
a-------0----------0----------0----0-0-0-0-0-0-
f-----4----------4----------4----4-------------
c----------------------------------------------
g----------------------------------------------
c----------------------------------------------

Verses: pm 

d-----------------------------------------------------------------
a-----------------------------------------------------------------
f-----------------------------------------------------------------
c---9---9-9-9---9---9---9---9---9---9---9---9---9---9---9---9---9-
g-7---0---7---0---7---0---7---0---8---0---8---0---8---0---8---0---
c-----------------------------------------------------------------

Riff B:

x2
d-----------------------------------------------------------------
a-----------------------------------------------------------------
f-----------------------------------------------------------------
c---9---9---9---9---9---9---9---9---9---9---9---9---9---9---9---9-
g-7---0---7---0---7---0---7---0---8---0---8---0---8---0---8---0---
c-----------------------------------------------------------------

then,

d-----------------------------------------------------------------
a-----------------------------------------------------------------
f-----------------------------------------------------------------
c---9---9---9---9---9---9---9---9---9---9---9---9---9---9-9-9-0-0-
g-7---0---7---0---7---0---7---0---8---0---8---0---8---0---8-8-----
c-----------------------------------------------------------------

Chorus:

Fig. 1

d-----------------------------------------------------------------
a-----------------------------------------------------------------
f-----------------------------------------------------------------
c-----------------------------------------------------------------
g-2-2-2-2-2-2-2-----2-2-2-2---2-2-3-3-3-3-3-3-3-3-3-3-3-3-3-3-3---
c-2-2-2-2-2-2-2-----2-2-2-2---2-2-3-3-3-3-3-3-3-3-3-3-3-3-3-3-3-2-

before Interlude:

d-----------------------------------------------------------------
a-----------------------------------------------------------------
f-----------------------------------------------------------------
c-----------------------------------------------------------------
g-2-2-2-2-2-2-2-----2-2-2-2---2-2-3-3-3-3-3-3-3----3-3-3-3-3---0--
c-2-2-2-2-2-2-2-----2-2-2-2---2-2-3-3-3-3-3-3-3----3-3-3-3-3---0--

Interlude:
[ Tab from: http://www.guitartabs.cc/tabs/s/system_of_a_down/suggestions_tab_ver_7.html ]
d-----------------------------------------------------------------
a-----------------------------------------------------------------
f-8------8-----8-8-8-8-8-8-8-8-8-11-11-11-11-11-11-11-11-11-11-11-
c-x------x-----x-x-x-x-x-x-x-x-x--x--x--x--x--x--x--x--x--x--x--x-
g-7----7-7---7-7-7-7-7-7-7-7-7-7-10-10-10-10-10-10-10-10-10-10-10-
c-----------------------------------------------------------------

d-----------------------------------------------------------------
a-----------------------------------------------------------------
f-8------8-----8-----8-----8-8-8/11-11-11----11-----11-11----11-0-
c-x------x-----x-----x-----x-x-x--x--x--x-----x------x--x-----x---
g-7----7-7---7-7---7-7---7-7-7-7/10-10-10-10-10--10-10-10-10-10---
c-----------------------------------------------------------------

gtr. 1 w/ Riff A

gtr. 2

x2
d-----------------------------------------------------------------
a-----0-------0-------0-------0-------0-------0-------0-------0---
f---4---4---4---4---4---4---4---4---4---4---4---4---4---4---4---4-
c-2-------2-------2-------2-------3-------3-------3-------3-------
g-----------------------------------------------------------------
c-----------------------------------------------------------------

d----0-----
a---0------
f--4-------
c-5--------
g----------
c----------

Interlude:
x2
d-----------------------------------------------------------------
a-----------------------------------------------------------------
f-----------------------------------------------------------------
c-----------------------------------------------------------------
g-2-------2---2-----2--2---2-2-2-2-3-------3---3-----3--3-----3/5-
c-2-------2---2-----2--2---2-2-2-2-3-------3---3-----3--3-----3/5-

pm
d-----------------------------------------------------------------
a-----------------------------------------------------------------
f-----------------------------------------------------------------
c-----------------------------9-------------------------10-----10-
g-7-7-7-7-7-7-7-7-7-7-7-7-7-7----8-8-8-8-8-8-8-8-8-8-8-8-8-8-8----
c-----------------------------------------------------------------

d-----------------------------------------------------------------
a-----------------------------------------------------------------
f-----------------------------------------------------------------
c-----------------9-9---------9-----1010101010101010101010--------
g-7-7-7-7-7-7-7-7-7-7-7-7-7-7----8-8-8-8-8-8-8-8-8-8-8-8-8--------
c-----------------------------------------------------------------

Outro:

d-----------------------------------------------------------------
a-----------------------------------------------------------------
f-8------8-----8-8-8-8-8-8-8-8-8-11-11-11-11-11-11-11-11-11-11-11-
c-x------x-----x-x-x-x-x-x-x-x-x--x--x--x--x--x--x--x--x--x--x--x-
g-7----7-7---7-7-7-7-7-7-7-7-7-7-10-10-10-10-10-10-10-10-10-10-10-
c-----------------------------------------------------------------

d-----------------------------------------------------------------
a-----------------------------------------------------------------
f-8------8-----8-----8-----8-8-8/11-11-11----11-----11-11----11-0-
c-x------x-----x-----x-----x-x-x--x--x--x-----x------x--x-----x---
g-7----7-7---7-7---7-7---7-7-7-7/10-10-10-10-10--10-10-10-10-10---
c-----------------------------------------------------------------

d-----------------------------------------------------------------
a-----------------------------------------------------------------
f-----------------------------------------------------------------
c-----------------------------------------------------------------
g-2---------------------------------------------------------------
c-2---------------------------------------------------------------

thatís all

trevor jones
timmy91199@yahoo.ca
Comments