System Of A Down - Suggestions Chords & Tabs

 

Suggestions Chords & Tabs

System Of A Down Chords & Tabs

Version: 6 Type: Tab 0 ratings
1 star 2 stars 3 stars 4 stars 5 stars
comments

Suggestions Tab

/---------------------------------------------------------------------
/----------0--------------0------------------0------------------0-----
/------16-----16------16-----16----------16-----16----------16--------
/--14-------------14-------------14--15-------------15--15------------
/---------------------------------------------------------------------
/---------------------------------------------------------------------
      
/---------------------------------------------------------------------
/---------------------------------------------------------------------
/---------------------------------------------------------------------
/-----9-----9-----9-----9------9-------9-----9-----9-----9------9-----
/--7-----0-----7-----0------7----0--8-----0-----8-----0-----8-----0---
/---------------------------------------------------------------------


/---------------------------------------------------------------------
/---------------------------------------------------------------------
/---------------------------------------------------------------------
/--2-2-2-2-2-2---3-3-3-3-3-3------------------------------------------
/--2-2-2-2-2-2---3-3-3-3-3-3------------------------------------------
/--2-2-2-2-2-2---3-3-3-3-3-3------------------------------------------



/---------------------------------------------------------------------
/---------------------------------------------------------------------
/--8--8--8--8--8-/-11--11--11--11--11---------------------------------
/--x--x--x--x--x-/-x---x---x---x---x----------------------------------
/--7--7--7--7--7-/-10--10--10--10--10---------------------------------
/---------------------------------------------------------------------

[ Tab from: http://www.guitartabs.cc/tabs/s/system_of_a_down/suggestions_tab_ver_6.html ]
/--------------------|--------|---------------------------------------
/----------0---------|        |--------0-----------0--------0---------
/------16-----16-----|guitar 2|-----4-----4-----4--------4-----4------
/--14-------------14-|plays...|--2-----------2--------2-----------2---
/--------------------|        |---------------------------------------
/--------------------|        |---------------------------------------


/------------------------------------0--------------------------------
/----------0--------------0----------0--------------------------------
/------16-----16------16-------------16-------------------------------
/--15-------------15-----------------15-------------------------------
/---------------------------------------------------------------------
/---------------------------------------------------------------------


/---------------------------------------------------------------------
/---------------------------------------------------------------------
/---------------------------------------------------------------------
/--2-2-2-2-2----3-3-3-3-3///--5---------------------------------------
/--2-2-2-2-2----3-3-3-3-3///--5---------------------------------------
/--2-2-2-2-2----3-3-3-3-3///--5---------------------------------------


/---------------------------------------------------------------------
/---------------------------------------------------------------------
/---------------------------------------------------------------------
/--3---3---3---3---3-----2--------------------------------------------
/--3---3---3---3---3-----2--------------------------------------------
/--3---3---3---3---3-----2--------------------------------------------


thats the whole song. JUST LISTEN TO THE SONG AND GO WITH IT.
Comments