System Of A Down - Suggestions Chords & Tabs

 

Suggestions Chords & Tabs

System Of A Down Chords & Tabs

Version: 2 Type: Tab 0 ratings
1 star 2 stars 3 stars 4 stars 5 stars
comments

Suggestions Tab

-------------------------------------------------------------------------
System of a Down
Song Name: Suggestions
Tuning: Drop D
-------------------------------------------------------------------------


Intro
-------------------      ------------------
-----13----13------      ------13----13----
--------10--------- 4x   ---------11-------  4x
--10---------------      ---10-------------
-------------------      ------------------
-------------------      ------------------

Verse
-------------
-1----2------
-3----4------  Play each chord 8 times and then 
-------------  go to the other one and keep repeating
-------------
-------------
[ Tab from: http://www.guitartabs.cc/tabs/s/system_of_a_down/suggestions_tab_ver_2.html ]
Chorus
--------------------------------------
--------------------------------------
--------------------------------------
-2-2-22-2222---3-3-33-3333------------
-2-2-22-2222---3-3-33-3333------------
-2-2-22-2222---3-3-33-3333------------


After second chorus
--------------------------------------
--------------------------------------
--------------------------------------
--7777777777---9999999999999----------
--5555555555---7777777777777----------
--------------------------------------

Then play into and chorus parts again then...
--------------------------------------
--------------------------------------
----------------5----------------7----
-22222222222222---33333333333333------
-22222222222222---33333333333333------
-22222222222222---33333333333333------
\------PM-----/   \-----PM-----/

Comments