System Of A Down - Suggestions Chords & Tabs

 

Suggestions Chords & Tabs

System Of A Down Chords & Tabs

Version: 5 Type: Bass Tab 0 ratings
1 star 2 stars 3 stars 4 stars 5 stars
comments

Suggestions Bass Tab

   
                         "Suggestions" by System of a Down
                                tabbed by Drabaz30
                              

tuning - drop C (C,G,C,F)

================================================================================

  intro (quietly, then creep in towards the end)
F|----------------------------------------------------------------|
C|2~~~~~~~~~~~~~~~3~~~~~~~~~~~~~~~2~~~~~~~~~~~~~~~3~~~~~~~~333333-|
G|----------------------------------------------------------------|
C|----------------------------------------------------------------|

================================================================================

  verse 1
F|----------------------------------------------------------------|
C|2---2---2---2---3---3---3---3---2---2---2---2---3---3---3---3---|
G|--0---0---0---0---0---0---0---0---0---0---0---0---0---0---0---0-|
C|----------------------------------------------------------------|

F|----------------------------------------------------------------|
C|2---2---2---2---3---3---3---3---2---2---2---2---3---3---3---3---|
G|--0---0---0---0---0---0---0---0---0---0---0---0---0---0---0---0-|
C|----------------------------------------------------------------|

================================================================================

  chorus 1
F|----------------------------------------------------------------|
C|----------------------------------------------------------------|
G|----------------------------------------------------------------|
C|2~22~22~22~22~2~3~33~33~33~33~3~2~22~22~22~22~2~3~33~33~33~33~3~|

================================================================================

  verse 2
F|----------------------------------------------------------------|
C|2---2---2---2---3---3---3---3---2---2---2---2---3---3---3---3---|
G|--0---0---0---0---0---0---0---0---0---0---0---0---0---0---0---0-|
C|----------------------------------------------------------------|

F|----------------------------------------------------------------|
C|2---2---2---2---3---3---3---3---2---2---2---2---3---3---3---3---|
G|--0---0---0---0---0---0---0---0---0---0---0---0---0---0---0---0-|
C|----------------------------------------------------------------|

================================================================================
[ Tab from: http://www.guitartabs.cc/tabs/s/system_of_a_down/suggestions_btab_ver_5.html ]
  chorus 2
F|----------------------------------------------------------------|
C|----------------------------------------------------------------|
G|----------------------------------------------------------------|
C|2~22~22~22~22~2~3~33~33~33~33~3~2~22~22~22~22~2~3~33~33~33~33~3~|

F|----------------------------------------------------------------|
C|----------------------------------------------------------------|
G|----------------------------------------------------------------|
C|1~11~11~11~11~1~4~44~44~44~44~4~1~11~11~11~11~1~4~44~44~44~44~4~|


================================================================================

  bridge
F|----------------------------------------------------------------|
C|----------------------------------------------------------------|
G|----------------------------------------------------------------|
C|2~~~~~~~~~~~~~~~------------------------------------------------|

F|----------------------------------------------------------------|
C|----------------------------------------------------------------|
G|----------------------------------------------------------------|
C|2~~~2~22~2~222203~~~3~33~3~333302~~~2~22~2~222203~~~3~33~3~33330|

F|----------------------------------------------------------------|
C|22222222222222--33333333333333--22222222222222--3333333333333---|
G|--------------2~--------------3~--------------2~----------------|
C|----------------------------------------------------------------|

================================================================================

  verse 2
F|----------------------------------------------------------------|
C|2---2---2---2---3---3---3---3---2---2---2---2---3---3---3---3---|
G|--0---0---0---0---0---0---0---0---0---0---0---0---0---0---0---0-|
C|----------------------------------------------------------------|

================================================================================

  chorus 3 / outro
F|----------------------------------------------------------------|
C|----------------------------------------------------------------|
G|----------------------------------------------------------------|
C|2~22~22~22~22~2~3~33~33~33~33~3~2~22~22~22~22~2~3~33~33~33~33~3~|

F|----------------------------------------------------------------|
C|----------------------------------------------------------------|
G|----------------------------------------------------------------|
C|1~11~11~11~11~1~4~44~44~44~44~4~1~11~11~11~11~1~4~44~44~44~44~4~|

F|----------------------|
C|----------------------|
G|----------------------|
C|2~~~~~~~~~~~~~~~------|

================================================================================
Comments