System Of A Down - Suggestions Chords & Tabs

 

Suggestions Chords & Tabs

System Of A Down Chords & Tabs

Version: 4 Type: Bass Tab 0 ratings
1 star 2 stars 3 stars 4 stars 5 stars
comments

Suggestions Bass Tab

   
tuning BEADG and CGcF  

the very end of the guitar intro 

G|-----------------|
D|-----------------|
A|-(5)-(5)-5-5-5-5-|
E|-----------------|
B|-----------------|

G|-7-7-7-7-|
C|---------|

Verse
G|------------------------------------------|
D|------------------------------------------|
A|-5-5-5--(535)6-6-6-(653)----*(5555)*------|
E|--3-3-3-------3-3-3-----------------------|
B|------------------------------------------|

G|-70-70-70-80-80-80-------|
C|-------------------------|

Chorus
G|------------------------------------------|
D|------------------------------------------|
A|------------------------------------------|
E|------------------------------------------|
B|-3-3-3-3-33-4-4-4-4-44--------------------|

C|-2-2-2-2-22-3-3-3-3-33---|



                Interlude 
[ Tab from: http://www.guitartabs.cc/tabs/s/system_of_a_down/suggestions_btab_ver_4.html ]
riff1                       	       2x
G|--------------------------------|----------|
D|--------------------------------|----------|
A|--------------------------------|----------|
E|--------------------------------|----------|
B|-33333333333333--44444444444444-|----1~----|

             
C|-22222222222222--33333333333333-|--0--|


Chorus

riff1

 When Serj "sings" :"..the ships are multiplying day after day sir.." just play
Verse

Chorus x2

Outro
                                x2
G|---------------------------------|---------|
D|---------------------------------|---------|
A|-5555555555555555666666666666666-|---5~----|
E|---------------------------------|---------|
B|---------------------------------|---------|

G|-7777777777777777888888888888888-|---7~----|
C|---------------------------------|---------|


I like it because it's easy and kicks ass hard, ENJOY (OR DIE)!
Comments