System Of A Down - Sugar Chords & Tabs

 

Sugar Chords & Tabs

System Of A Down Chords & Tabs

Version: 4 Type: Tab 2 ratings
1 star 2 stars 3 stars 4 stars 5 stars
comments

Sugar Tab

       _______
      /       \    |            |     _______             ___       _________
     /         \   |            |    /                    / \       |        \
    /              |            |   /                    /   \      |         \
    \              |            |  /                    /     \     |          \
     \________     |            |  |                   /       \    |          |
              \    |            |  |                   |       |    |          /
               \   |            |  |                   |_______|    |_________/         
                \  \            /  \        ______     |       |    |       \
                /   \          /    \            /     |       |    |        \
    \          /     \        /      \          /      |       |    |         \
     \________/       \______/        \________/       |       |    |          \




FORWARD

Firstly i have been tring to play systems songs for a while now and every damn tab i found had flaws 
they sounded alot like it but not exact, so i was wishing and hoping for so long a magazine would 
come out with a few of thier songs today my prayers were answered so i give to you the EXACT way 
daron plays sugar , PS I know the SUGAR along the top sucks but i didnt feel like putting any effor 
into it it is 12:30 lol

TUNING

   This song is in a dropped D a whole step tuning, from low to high , D A D G B E

KEY

\ = SLIDE

X = MUTE (mute means *for all the guitar illiterate people* holding the strings with your fingers so 
that when played they dont make a noise you hold them lightly so that they cant ring and make noise)


INTRO / CHORUS RIFF
[ Tab from: http://www.guitartabs.cc/tabs/s/system_of_a_down/sugar_tab_ver_4.html ]
 |------------------------------------------------|  
 |------------------------------------------------|
 |------------------------------------------------|
 |------------------------------------------------|
 |----0-7-6-5---0-7-6-5---------------------------|
 |----0-7-6-5---0-7-6-5---------------------------| 


                                     (sugar!)


 |-----13--------13-12-------------10\-----10/----|
 |--10------------------13------10----------------|
 |------------------------------------------------|
 |------------------------------------------------|
 |------------------------------------------------|
 |------------------------------------------------|



VERSE RIFF #2
 
                              just let all the 10's ring

 |----13----13-13---12------------10-------10-----|
 |-10--------------------13---10------10-------10-|
 |------------------------------------------------|
 |------------------------------------------------|
 |------------------------------------------------|
 |------------------------------------------------|
this part of the song takes place at 1:47 into the song




BRIDGE

                            this part takes place at 1:58
 |-------------------------|--------------------------|
 |-------------------------|--------------------------|
 |-------------------------|--------------------------|
 |-------------------------|--------------------------|
 |--1------------1-0-------|-1------1-0--1-0-----0-0--|
 |--1------------1-0-------|-1---X\-1-0--1-0--X\-0-0--| 



  Well thats it for system of a down this song is relatively easy if you have any questions email me 
at grandmasterflash17@hotmail.com but dont email me telling me how bad that "graphic" at the top is 

  -peace , dan        



Comments