System Of A Down - Sugar Chords & Tabs

 

Sugar Chords & Tabs

System Of A Down Chords & Tabs

Version: 2 Type: Tab 1 rating
1 star 2 stars 3 stars 4 stars 5 stars
comments

Sugar Tab

System Of A Down Tabs at The Metal Index




      - | Home | A| B | C | D | E | F | G | H | I | J | K | L | M | N | O | P | 
      Q | R | S | T | U | V | W | X | Y | Z | #   |- 
      - |The Gauntlet | CD Reviews | Metal News | MP3's | CD Palace | Radio 
      Stations | TABS | Labels  | - 




System Of A Down 'Sugar'
Back to the Index
Back to System Of A Down TABS
System Of A Down at The Gauntlet
Download this TAB 


Drop D Tuning And One Step Down (low to high: CFCFAD)

Intro/Chorus
////////////

|-----------|
|-----------|
|-----------|
|--0-7-6-5--|
|--0-7-6-5--|
|--0-7-6-5--|

Verse
/////
[ Tab from: http://www.guitartabs.cc/tabs/s/system_of_a_down/sugar_tab_ver_2.html ]
|-------13---12-13-----------------------------|
|-------------------13----------15/------15/---|  w/staccato phrasing
|--14----------------------14------------------|
|----------------------------------------------|
|----------------------------------------------|
|----------------------------------------------|

end with:

|-------13---12-13-------------------------------|
|-------------------13----------15-------15------|  ** let notes ring
|--14----------------------14--------14---- etc--|
|------------------------------------------------|
|------------------------------------------------|
|------------------------------------------------|

Breakdown
/////////

|--------------|
|--------------|
|--------------|
|--1----1-0----|
|--1----1-0----|
|--1----1-0----|

 Gradually get faster
|----------------------------|
|----------------------------|
|----------------------------|
|--1--1-1-1-1-1-0--0-0-0-0-0-|
|--1--1-1-1-1-1-0--0-0-0-0-0-|
|--1--1-1-1-1-1-0--0-0-0-0-0-|

 
Comments