System Of A Down - Sugar Chords & Tabs

 

Sugar Chords & Tabs

System Of A Down Chords & Tabs

Version: 12 Type: Tab 0 ratings
1 star 2 stars 3 stars 4 stars 5 stars
comments

Sugar Tab

system of a down
sugar


Bass and drums intro intro
)--------------
)--------------
)--------------
)-6-5-4-3-2-1-0

chorus(reapet several times)
    the kombucha mushroom people  siting  around  allday
)---------------------------------------------------------
)---------------------------------------------------------
)---------------------------------------------------------
)-0----7----6----5----0----7----6----5----0----7----6----5
)-0----7----6----5----0----7----6----5----0----7----6----5
)-0----7----6----5----0----7----6----5----0----7----6----5

)---------------------------------------------------------
)---------------------------------------------------------
)---------------------------------------------------------
)-0----7----6----5----0----7----6----5----0----7----6----5

  WHO    can  belive  you WHO    can  belive  you
)---------------------------------------------------------
)---------------------------------------------------------
)---------------------------------------------------------
)-0----7----6----5----0----7----6----5----0----7----6----5
)-0----7----6----5----0----7----6----5----0----7----6----5
)-0----7----6----5----0----7----6----5----0----7----6----5

)---------------------------------------------------------
)---------------------------------------------------------
)---------------------------------------------------------
)-0----7----6----5----0----7----6----5----0----7----6----5

  Let your mother prraayy
)-----------------
)-----------------
)-----------------
)-0----7----6----5
)-0----7----6----5
)-0----7----6----5

)-----------------
)-----------------
)-----------------
)-0----7----6----5

Bass guitar on its own CArry on same rythum
                                      SSSUUUGGGAAARRR
)---------------------------------------------------------
)---------------------------------------------------------
)---------------------------------------------------------
)-0----7----6----5----0----7----6----5----0----7----6----5

Verse

)----13-13-12-------10--10^
)-10----------13-10--------
)--------------------------
)--------------------------
)--------------------------
)--------------------------
End the verse here (MY BRAINS!!!)
)-10---10---10---10--
)---10---10---10---10
)--------------------
)--------------------
)--------------------
)--------------------

chorus(reapet several times)
    the kombucha mushroom people  siting  around  allday
)---------------------------------------------------------
)---------------------------------------------------------
)---------------------------------------------------------
)-0----7----6----5----0----7----6----5----0----7----6----5
)-0----7----6----5----0----7----6----5----0----7----6----5
)-0----7----6----5----0----7----6----5----0----7----6----5

)---------------------------------------------------------
)---------------------------------------------------------
)---------------------------------------------------------
)-0----7----6----5----0----7----6----5----0----7----6----5

  WHO    can  belive  you WHO    can  belive  you
)---------------------------------------------------------
)---------------------------------------------------------
)---------------------------------------------------------
)-0----7----6----5----0----7----6----5----0----7----6----5
)-0----7----6----5----0----7----6----5----0----7----6----5
)-0----7----6----5----0----7----6----5----0----7----6----5

)---------------------------------------------------------
)---------------------------------------------------------
)---------------------------------------------------------
)-0----7----6----5----0----7----6----5----0----7----6----5

  Let your mother prraayy
)-----------------
)-----------------
)-----------------
)-0----7----6----5
)-0----7----6----5
)-0----7----6----5

)-----------------
)-----------------
)-----------------
)-0----7----6----5
[ Tab from: http://www.guitartabs.cc/tabs/s/system_of_a_down/sugar_tab_ver_12.html ]
Bass guitar on its own carry on same rythum
                                      SSSUUUGGGAAARRR
)---------------------------------------------------------
)---------------------------------------------------------
)---------------------------------------------------------
)-0----7----6----5----0----7----6----5----0----7----6----5

verse

)----13-13-12-------10--10^
)-10----------13-10--------
)--------------------------
)--------------------------
)--------------------------
)--------------------------
End the verse here (SUGAR!!!)
)-10---10---10---10--
)---10---10---10---10
)--------------------
)--------------------
)--------------------
)--------------------

chorus(reapet several times)
    the kombucha mushroom people  siting  around  allday
)---------------------------------------------------------
)---------------------------------------------------------
)---------------------------------------------------------
)-0----7----6----5----0----7----6----5----0----7----6----5
)-0----7----6----5----0----7----6----5----0----7----6----5
)-0----7----6----5----0----7----6----5----0----7----6----5

)---------------------------------------------------------
)---------------------------------------------------------
)---------------------------------------------------------
)-0----7----6----5----0----7----6----5----0----7----6----5

  WHO    can  belive  you WHO    can  belive  you
)---------------------------------------------------------
)---------------------------------------------------------
)---------------------------------------------------------
)-0----7----6----5----0----7----6----5----0----7----6----5
)-0----7----6----5----0----7----6----5----0----7----6----5
)-0----7----6----5----0----7----6----5----0----7----6----5

)---------------------------------------------------------
)---------------------------------------------------------
)---------------------------------------------------------
)-0----7----6----5----0----7----6----5----0----7----6----5

  Let your mother prraayy
)-----------------
)-----------------
)-----------------
)-0----7----6----5
)-0----7----6----5
)-0----7----6----5

)-----------------
)-----------------
)-----------------
)-0----7----6----5


Interlude
   i sit    my dyslight room  no lights    no music   JUST ANGER     
)-------------------------------------------------------------------
)-------------------------------------------------------------------
)-------------------------------------------------------------------
)-1------1-0-----------------1----------1-0---------1------------1-0
)-1------1-0-----------------1----------1-0---------1------------1-0
)-1------1-0-----------------1----------1-0---------1------------1-0

 im away forever   but im feeling better
)------------------------------------------
)------------------------------------------
)------------------------------------------
)----------------1-------------------------
)----------------1-------------------------
)----------------1-------------------------

what do i feel? what do i say? *** you and all gos away
PM
---------------------------------------------------------
)--------------------------------------------------------
)--------------------------------------------------------
)--------------------------------------------------------
)-1-0-0-0-1-0-1-0-0-0-1-0-1-0-0-0-1-0-1-0-0-0-1-0-1-0-0-0
)-1-0-0-0-1-0-1-0-0-0-1-0-1-0-0-0-1-0-1-0-0-0-1-0-1-0-0-0
)-1-0-0-0-1-0-1-0-0-0-1-0-1-0-0-0-1-0-1-0-0-0-1-0-1-0-0-0

how do i feel? what do i say? in the end it all go's away
PM
---------------------------------------------------------
)--------------------------------------------------------
)--------------------------------------------------------
)--------------------------------------------------------
)-1-0-0-0-1-0-1-0-0-0-1-0-1-0-0-0-1-0-1-0-0-0-1-0-1-0-0-0
)-1-0-0-0-1-0-1-0-0-0-1-0-1-0-0-0-1-0-1-0-0-0-1-0-1-0-0-0
)-1-0-0-0-1-0-1-0-0-0-1-0-1-0-0-0-1-0-1-0-0-0-1-0-1-0-0-0

near end of song
pm
---------
)--------
)-------- 
)--------   gradully realease the palm mute :D
)-0-7-6-5 
)-0-7-6-5 
)-0-7-6-5
Comments