System Of A Down - Sugar Chords & Tabs

 

Sugar Chords & Tabs

System Of A Down Chords & Tabs

Version: 1 Type: Tab 2 ratings
1 star 2 stars 3 stars 4 stars 5 stars
comments

Sugar Tab

Intro/Chorus

|------------------|
|------------------|
|------------------|
|-0-7-6-5--0-7-6-5-|
|-0-7-6-5--0-7-6-5-|
|-0-7-6-5--0-7-6-5-| x8

Verse

|----13--13-12---------------------------|
|--------------13-----15/////---15//////-|
|-14---------------14-----------14//////-|
|----------------------------------------|
|----------------------------------------|
|----------------------------------------| x3
[ Tab from: http://www.guitartabs.cc/tabs/s/system_of_a_down/sugar_tab.html ]
|----13------13-12----------------------------------|
|------------------13-----15----15----15-----15-----|
|-14-------------------14----14----14----14-----14--|
|---------------------------------------------------|
|---------------------------------------------------|
|---------------------------------------------------|


Chorus 2- Same as Intro

Verse 2- Same as Verse 1

Chorus 3- Same as Intro

Bridge

|---------|
|---------|
|---------|
|-1---1-0-|
|-1---1-0-|
|-1---1-0-|

|-----------------------------|
|-----------------------------|
|-----------------------------|
|-0-0-0h1///12---1-1-1p0///12-|
|-0-0-0h1///12---1-1-1p0///12-|
|-0-0-0h1///12---1-1-1p0///12-| x20
 
Outro

|---------|
|---------|
|---------|
|-0-7-6-5-|
|-0-7-6-5-|
|-0-7-6-5-|

thats pretty much it.
its really an easy song. have fun with it.
SUGAR!!!

Comments