System Of A Down - Sugar Chords & Tabs

 

Sugar Chords & Tabs

System Of A Down Chords & Tabs

Version: 5 Type: Bass Tab 0 ratings
1 star 2 stars 3 stars 4 stars 5 stars
comments

Sugar Bass Tab

Tabbed By : Mike Antoch
e-mail: Sodaman34@aol.com

Tuning: drop c cgcf

intro with bass and drums
G|--------------------------------------------------------------------------|
D|--------------------------------------------------------------------------|
A|5-4-3-2-1-----------------------------------------------------------------|
E|--------------------------------------------------------------------------|

main riff (u figure out how many times)
G|--------------------------------------------------------------------------|
D|--------------------------------------------------------------------------|
A|--------------------------------------------------------------------------|
E|0-7-6-5-0-7-6-5-0-7-6-5-0-7-6-5-------------------------------------------|

verse, bass is different than guitar(again u figure out how many times)
G|--------------------------------------------------------------------------|
D|--------------------------------------------------------------------------|
A|--------------------------------------------------------------------------|
E|0-7-6-5-0-7-6-5-0-7-6-5-0-7-6-5-------------------------------------------|

then ur gonna play the chorus again
then the verses again
[ Tab from: http://www.guitartabs.cc/tabs/s/system_of_a_down/sugar_btab_ver_5.html ]
first part of the breakdown (x whatever)
G|--------------------------------------------------------------------------|
D|--------------------------------------------------------------------------|
A|--------------------------------------------------------------------------|
E|1----1-0------------------------------------------------------------------|

ending breakdown (x whatever)( not sure what fret to slide from, so im just guessing. it 
be hard to figure out, so u do it urself)
G|--------------------------------------------------------------------------|
D|--------------------------------------------------------------------------|
A|--------------------------------------------------------------------------|
E|8/0000-8///1--------------------------------------------------------------|

outro (x whatever)
G|--------------------------------------------------------------------------|
D|--------------------------------------------------------------------------|
A|--------------------------------------------------------------------------|
E|0-7-6-5-0-7-6-5-----------------------------------------------------------|

thats the song, it is extremly easy. the sliding at the end takes some getting used to, 
its easy. peace out people, have fun
Comments