System Of A Down - Sugar Chords & Tabs

 

Sugar Chords & Tabs

System Of A Down Chords & Tabs

Version: 4 Type: Bass Tab 0 ratings
1 star 2 stars 3 stars 4 stars 5 stars
comments

Sugar Bass Tab

   
Band: System of a Down
Song: Sugar
Tabbed By: Daniel Luengas
E-Mail: daniel182col@hotmail.com

This song is really easy, but really fast too.
This is 100% right, so...enjoy... (vote for me)

Intro:

F|------------------------------------|
C|------------------------------------|
G|------------------------------------| 
C|-0765-0765-0765-0765-0765-0765-0765-|

Mini Bass Solo:

F|------------------------------------|
C|------------------------------------|
G|------------------------------------| 
C|-0765-0765-0765-0765-0765-0765-0765-|

Verse 1:

F|------------------------------------|
C|------------------------------------|
G|------------------------------------| 
C|-0765-0765-0765-0765-0765-0765-0765-|

Chorus:

F|------------------------------------|
C|------------------------------------|
G|------------------------------------| 
C|-0765-0765-0765-0765-0765-0765-0765-|

Mini Bass Solo:

F|------------------------------------|
C|------------------------------------|
G|------------------------------------| 
C|-0765-0765-0765-0765-0765-0765-0765-|

Verse 2:
[ Tab from: http://www.guitartabs.cc/tabs/s/system_of_a_down/sugar_btab_ver_4.html ]
F|------------------------------------|
C|------------------------------------|
G|------------------------------------| 
C|-0765-0765-0765-0765-0765-0765-0765-|

Chorus:

F|------------------------------------|
C|------------------------------------|
G|------------------------------------| 
C|-0765-0765-0765-0765-0765-0765-0765-|

Bridge:

F|------------------------------------|
C|------------------------------------|
G|------------------------------------| 
C|-3--3-1--3--3-1--3--3-1--3--3-1-----|

F|--------------------------------------|
C|--------------------------------------|
G|--------------------------------------| 
C|-3--1-1/3--1-1/3--1-1/3--1-1/3--1-1/3-|

F|--------------------------------------|
C|--------------------------------------|
G|--------------------------------------| faster....
C|-1-1/3--1-1/3--1-1/3--1-1/3--1-1/3----|

F|--------------------------------------|
C|--------------------------------------|
G|--------------------------------------| faster....
C|-1-1/3--1-1/3--1-1/3--1-1/3--1-1/3----|


In the end it all goes away.....
F|--------------------------------------|
C|--------------------------------------|
G|--------------------------------------| faster....
C|-1-1/3--1-1/3--1-1/3--1-1/3--1-1/3----|


Ok, that it, hope you like it.
Comments