System Of A Down - Streamline Chords & Tabs

 

Streamline Chords & Tabs

System Of A Down Chords & Tabs

Version: 6 Type: Tab 0 ratings
1 star 2 stars 3 stars 4 stars 5 stars
comments

Streamline Tab

   
Great song. This is what I figured out so far. I don't use the Half-A-Tone-Down tunning 
like System does so this is by using a normal EBGDAE tunning. Enojy.

Intro/Chorus

?

Verse

E|--------| 
B|------8-|
G|----9---|
D|-10-----|]> Repeating several times
A|--------|
E|--------|

E|---------------|
B|------7------6-|
G|----8------7---|
D|-11------8-----|
A|---------------|
E|---------------|

Chorus

Pre Verse

E|--------| 
B|------8-|
G|----9---|
D|-10-----|]> Repeating several times
A|--------|
E|--------|

E|-----|
B|-----|
G|-----|
D|-6/3-|
A|-----|
E|-----|

Verse

Chorus

Solo

E|-8---10---11---13-11-10-11-10h11-8------|
B|---8----8----8--------------------------|
G|----------------------------------------|
D|----------------------------------------|
A|----------------------------------------|
E|----------------------------------------|
[ Tab from: http://www.guitartabs.cc/tabs/s/system_of_a_down/streamline_tab_ver_6.html ]
E|-8---10---11---13-11-10-11-10-11-15-10-11-10-8-10-8----|
B|---8----8----8--------------------------------------11-|
G|-------------------------------------------------------|
D|-------------------------------------------------------|
A|-------------------------------------------------------|
E|-------------------------------------------------------|

E|-15-10-11-10h11-8-10-8----|
B|-----------------------11-|
G|--------------------------|
D|--------------------------|
A|--------------------------|
E|--------------------------|

E|-8---10---11---13-11-10-11-10-11-15-10-11-10h11-|
B|------------------------------------------------|
G|------------------------------------------------|
D|------------------------------------------------|
A|------------------------------------------------|
E|------------------------------------------------|

E|-8-10-8----15-10-11-10-8-10-8----|
B|--------11--------------------11-|
G|---------------------------------|
D|---------------------------------|
A|---------------------------------|
E|---------------------------------|

Bridge

E|-15-15-15-10-10-10-11-10-8-10-8----|
B|--------------------------------11-|
G|-----------------------------------|
D|-----------------------------------|
A|-----------------------------------|
E|-----------------------------------|
 [             P  .  M               ]

Outro

?

Enjoy. Kman.
Comments