System Of A Down - Streamline Chords & Tabs

 

Streamline Chords & Tabs

System Of A Down Chords & Tabs

Version: 5 Type: Tab 0 ratings
1 star 2 stars 3 stars 4 stars 5 stars
comments

Streamline Tab

ok this is the intro and solo for  Stream line off the new CD "steal this album"  Its the first tab iI've sumitted so bear w/ me 

normal tuning

---------------------------------------------------------------------
---------------------------------------------------------------------
---------------------------------------------------------------------
---------------------------------------------------------------------
--------------------------------------------------------------------
0-0-2-3-0-0-1-0-0-2-3-----------------------------------------------


repeat that over and thats the intro 


solo
[ Tab from: http://www.guitartabs.cc/tabs/s/system_of_a_down/streamline_tab_ver_5.html ]
----------------------------------------------------15------------------------15---------------------------------------------
----13 ----- 15 -----16--------16--15-13-15-13-13-----15---16-15-13-15-13-13-----15--16--15-13-15-13-11------------------
---------12 -----12------12--------------------------------------------------------------------------------------------------
--------------------------------------------------------------------------------------------------------------------------------
--------------------------------------------------------------------------------------------------------------------------------
-------------------------------------------------------------------------------------------------------------------------------


---------------------------------------------------15--------------------------15-------------------------------------------------
----13 ----- 15 -----16--------16--15-13-15-13-13-----15---16-15-13-15-13-13-----15--16--15-13-15-13-11--13----------------------
---------12 -----12------12-------------------------------------------------------------------------------------------------------
------------------------------------------------------------------------------------------------------------------------------------
------------------------------------------------------------------------------------------------------------------------------------
-----------------------------------------------------------------------------------------------------------------------------------



that is the solo... any questions or comments send to Viper77gw@go.com or IM me a Sobe77gw

                         peace
Comments