System Of A Down - Streamline Chords & Tabs

 

Streamline Chords & Tabs

System Of A Down Chords & Tabs

Version: 3 Type: Tab 0 ratings
1 star 2 stars 3 stars 4 stars 5 stars
comments

Streamline Tab

System of a down
Streamline
Submited by Ben Misikin this is my first submission sorry if its a little bad. this is pritty close to the song i 
know its not perfect but its close and i was board so i figured it do this. if you find the problem with it e-mail
me back my e-mail is: ben_jamin_misikin@hotmail.com. thanks awsom song later.
 (solo) repeat                                                    (palm mute)                        (palm mute)    intro (palm mute)                                                                                 
--------------------------------12-9-7-10-8-7------------|-------------12-9-7-10-8-7--------|----------------|----------------|                  
---15---10---17---10---18--10----------------------------|---18---10------------------------|----------------|----------------|
---------------------------------------------------------|----------------------------------|----------------|----------------|
---------------------------------------------------------|----------------------------------|---3--3-5-1-3---|----------------|
---------------------------------------------------------|----------------------------------|---3--3-5-1-3---|--3-3-5-1-3-----|
---------------------------------------------------------|----------------------------------|---3--3-5-1-3---|----------------|
this is at the end of the solo (palm mute) sorry its out of order i screwed up in the begining.
---------------------------12-9-7-10-8-7----------------------------------------------------------------------------------------|
---18-18-18-13-13-13------------------------------------------------------------------------------------------------------------|
--------------------------------------------------------------------------------------------------------------------------------|
--------------------------------------------------------------------------------------------------------------------------------|
--------------------------------------------------------------------------------------------------------------------------------|
--------------------------------------------------------------------------------------------------------------------------------|   
[ Tab from: http://www.guitartabs.cc/tabs/s/system_of_a_down/streamline_tab_ver_3.html ]
Comments