System Of A Down - Streamline Chords & Tabs

 

Streamline Chords & Tabs

System Of A Down Chords & Tabs

Version: 3 Type: Bass Tab 0 ratings
1 star 2 stars 3 stars 4 stars 5 stars
comments

Streamline Bass Tab

Ohh!...Wrong bass tab on the other one this  is 100% correct"!


Intro:
[Bass whit a little distortion]
-------------------|
-------------------|
-------------------|
-00-5-0-3-00-5-0-3-|


-------------------|
-------------------|
-------------------|   2x
-00-5-0-3-00-5-0-3-|

[Before verse]
-------------|
-------------|
-------------|
-6-6-6-6-5-3-|


Verse:
--------------------|
--------------------|
-10(let it ring)----|
----------------6-3-|
[I wasn't there for you]
-------------|
-------------|
-------------|
-6-6-6-6-5-3-|
[You are gone]
-------------------------------|
-------------------------------|
-------------------------------| 2x
-00-5-0-3-00-5-0-3-6-6-6-6-5-3-|

[before verse2]
-------------|
-------------|
-------------|
-6-6-6-6-5-3-|

[ Tab from: http://www.guitartabs.cc/tabs/s/system_of_a_down/streamline_btab_ver_3.html ]
Verse2:
--------------------|
--------------------|
-10(let it ring)----|
----------------6-3-|


[I wasn't there for you]
-------------|
-------------|
-------------|
-6-6-6-6-5-3-|

[you are gone]
-------------------------------|
-------------------------------|
-------------------------------| 2x
-00-5-0-3-00-5-0-3-6-6-6-6-5-3-|


[Before solo]
------------------------------------------------|
------------------------------------------------|
------------------------------------------------|
-5-5-5-5-5-7-7-7-7-7-8-8-8-8-8-8-12-12-12-12-12-|


Solo:
---------------------------------------------------|
---------------------------------------------------|
---------------------------------------------------|
-0-0-0-0-0-0-0-0-0-0-0-0-0-0-0-0-0-0-5-5-5-5-5-5-5-|

---------------------------|
---------------------------|
---------------------------|
-5-5-5-5-5-5-9-9-9-9-9-9-9-|


If you listen to the song you will know the rest...
Comments