System Of A Down - Streamline Chords & Tabs

 

Streamline Chords & Tabs

System Of A Down Chords & Tabs

Version: 1 Type: Bass Tab 0 ratings
1 star 2 stars 3 stars 4 stars 5 stars
comments

Streamline Bass Tab

   
-=Streamline=- System of a down
tabs by Javir Rodríguez

A:
F|---------------|
C|-0-5-5/7-0-0-3-|
G|---------------|
C|---------------|

B:
F|-------------|
C|-------------|
G|-------------|
C|-5-5-5-5-5-5-|

C:
F|---------------|
C|---------------|
G|---------------|
C|-0-5-5/7-0-0-3-|

D:
F|-----------|
C|-----------|
G|-----------|
C|-8-8-8-7-5-|


E:
F|-----------------------------------|
C|-----------------------------------|
G|-5~~~~~-----6--3--5~~~~~-----3--1--|
C|-----------------------------------|
  
F:
F|-------------------------------------------------------|
C|-------------------------------------------------------|
G|-------------------------------------------------------|
C|-5-5-5-5-5-5-7-7-7-7-7-7-8-8-8-8-8-8-12-12-12-12-12-12-|
[ Tab from: http://www.guitartabs.cc/tabs/s/system_of_a_down/streamline_btab.html ]
G:
F|-------------------------------------------------|
C|-------------------------------------------------|
G|-------------------------------------------------|
C|-0-0-0-0-0-0-0-0-0-0-0-0-0-0-0-0-0-0-8-8-8-5-5-5-|
     
H:
F|-------------------------------------------------|
C|-------------------------------------------------|
G|-------------------------------------------------|
C|-5-5-5-5-5-5-5-5-5-5-5-5-5-5-5-5-5-5-5-5-5-5-5-5-|

I:
F|-------------------|
C|-------------------|
G|-------------------|
C|-0~~~~------8---5--|

J:
F|------|
C|------|
G|------|
C|-0~~~-|

Order:
=====

A: X7
B:
C: X7
D:
C: X7
D:
E: X4
B:
C: X3
D:
C: X3
D:
C: X3
D:
C: X3
D:
E: X3
B:
C: X3
D:
C: X3
D:
C: x3
D:
F:
G: X2
H:
G:
H:
I: X4
B:
C: X3
D:
C: X3
D:
F:
C: X8
F: X2
Comments