System Of A Down - Spiders Chords & Tabs

 

Spiders Chords & Tabs

System Of A Down Chords & Tabs

Version: 6 Type: Tab 0 ratings
1 star 2 stars 3 stars 4 stars 5 stars
comments

Spiders Tab

   
well lol my 2nd submission 2 this site lol on the same 
day even this is how i play spiders by system o a down but
 i not sure on solo an such sorry if i ever get time 2 figure 
it out ill add it or if sum1 sends me 1 i think is at least almost 
there ill post it  my emails mellow_my_mind@yahoo.com


[ Tab from: http://www.guitartabs.cc/tabs/s/system_of_a_down/spiders_tab_ver_6.html ]
main riff
:-------------------------
:-------------------------
:-------------------------
:-------------------------
:----9---9---8---8---8-8-8
:--0---0---0---0---0------


2nd riff
:-------------------------
:-------------------------
:-------------------------
:-------------------------
:----10--9--12---9---8-9--
:--0---0---0---0---0------

chorus
c5
Comments