System Of A Down - Spiders Chords & Tabs

 

Spiders Chords & Tabs

System Of A Down Chords & Tabs

Version: 4 Type: Tab 0 ratings
1 star 2 stars 3 stars 4 stars 5 stars
comments

Spiders Tab

   
Song: Spiders
Artist: System of a down
Tabbed by Simon Pilkington

Tuning: D A D G B E

VERSE

|----------------------------------------------------------------------------|
|----------------------------------------------------------------------------|
|----------------------------------------------------------------------------|			X2
|----------------------------------------------------------------------------|
|----------7------------7------------5------------5----------55----------|
|---0------------0------------0------------0----------0------------------|



|----------------------------------------------------------------------------------------------------------------------|
|----------------------------------------------------------------------------------------------------------------------|
|----------------------------------------------------------------------------------------------------------------------|	
|----------------------------------------------------------------------------------------------------------------------|
|----------8------------7-----------10-----------8------------8\7----------8------------8------------5-----------|
|---0------------0------------0------------0------------0------------0------------0------------0------------------|


|----------------------------------------------------------------------------|
|----------------------------------------------------------------------------|
|----------------------------------------------------------------------------|			X2
|----------------------------------------------------------------------------|
|----------7------------7------------5------------5----------55----------|
|---0------------0------------0------------0----------0------------------|


[ Tab from: http://www.guitartabs.cc/tabs/s/system_of_a_down/spiders_tab_ver_4.html ]
|----------------------------------------------------------------------------------------------------------------------|
|----------------------------------------------------------------------------------------------------------------------|
|----------------------------------------------------------------------------------------------------------------------|	
|----------------------------------------------------------------------------------------------------------------------|
|----------8------------7-----------10-----------8------------8\7----------8------------8------------5-----------|
|---0------------0------------0------------0------------0------------0------------0------------0------------------|


CHORUS

|---------------------------------------------------------------------------------------------------------------------|
|---------------------------------------------------------------------------------------------------------------------|
|---------------------------------------------------------------------------------------------------------------------|
|--8-8-8-8-8-8-8-8-8-8-8-8-8-8-8-8--------------------------------------------------------------------------|
|--8-8-8-8-8-8-8-8-8-8-8-8-8-8-8-8-------12------10-----13-----12----10\12-10\12-10/12---7----|
|--8-8-8-8-8-8-8-8-8-8-8-8-8-8-8-8----0-------0-------0-------0-------0-------0-------0-------0-------|
							         / | \  	
							           |
						
Guitar – No vocals



|------------------------------------------------|
|------------------------------------------------|
|------------------------------------------------|
|--8-8-8-8-8-8-8-8-7-7-7-7-7-7-7-7----|
|--8-8-8-8-8-8-8-8-7-7-7-7-7-7-7-7----|
|--8-8-8-8-8-8-8-8-7-7-7-7-7-7-7-7----|

VERSE


CHORUS


SOLO

|------------------------------------------------------------------------------------------------------------------R--|
|------------------------------------------------------------------------------------------------------------------E--|
|-1414141414141414141414-1515151515151515151515-1818181818181818181818-P--|
|------------------------------------------------------------------------------------------------------------------E--|
|------------------------------------------------------------------------------------------------------------------A--|
|------------------------------------------------------------------------------------------------------------------T--|

|------------------------------------------------------------------------------------------------------------------R---|
|------------------------------------------------------------------------------------------------------------------E---|
|-1818181818181818181818-1919191919191919191919-1717171717171717171717-P---|
|------------------------------------------------------------------------------------------------------------------E---|
|------------------------------------------------------------------------------------------------------------------A---|
|------------------------------------------------------------------------------------------------------------------T---|

Wicked song!  System rule!
Hope it is right!



Comments