System Of A Down - Spiders Chords & Tabs

 

Spiders Chords & Tabs

System Of A Down Chords & Tabs

Version: 3 Type: Tab 1 rating
1 star 2 stars 3 stars 4 stars 5 stars
comments

Spiders Tab

   
#----------------------------------PLEASE NOTE---------------------------------#
#This file is the author's own work and represents their interpretation of the #
#song. You may only use this file for private study, scholarship, or research. #
#------------------------------------------------------------------------------#
#------------Created with Taborama Tab Creator-----www.taborama.com------------#
#------------------------------------------------------------------------------#

Title: Spiders CORRECT
Artist: System of a Down
Album: System of a Down

Instrument: Guitar

Tabbed by: Joe Andriulli (Damios@comcast.net)

Tuning:( D A D G B E)

You can do the wierd tunning but just do D itll 
sound best and wont make ur guitar untouchably out of tune

I saw them do this on Conan o Brien EMAIL ME if u want the Video

THE OPENING IS BASS NOT GUITAR!!
[ Tab from: http://www.guitartabs.cc/tabs/s/system_of_a_down/spiders_tab_ver_3.html ]
Guitar part 1
E|------------------------
B|------------------------
G|------------------------
D|-8-8-8-8-8-8-8-8--------
A|-8-8-8-8-8-8-8-8--------
D|-8-8-8-8-8-8-8-8--------repeat

Verse
G|-12---10---13---12---10/12---10--10/12---8--8--8------
D|-x----x-----x----x---x-/-x---x---x-/-x---x--x--x------
A|-10---8----11---10---8-/10---8---8-/10---6--6--6------repeat


play GP1 till b4 the solo then play this
Pre-CHORUS
E|----------------------------------
B|----------------------------------
G|----------------------------------
D|-8-8-8-8-8-8-8-8--6-6-6--7-7-7----
A|-8-8-8-8-8-8-8-8--6-6-6--7-7-7----
D|-8-8-8-8-8-8-8-8--6-6-6--7-7-7----Repeat


SOLO Lisen for the timing dont just play each 1ce
play untill u hear the guitar change
E|----------------------------------
B|----------------------------------
G|-12--14--17--15-------------------
D|-12--14--17--15-------------------
A|-10--12--15--13-------------------
D|----------------------------------
Pick out the A and D string for the Sing Note Part
Comments