System Of A Down - Spiders Chords & Tabs

 

Spiders Chords & Tabs

System Of A Down Chords & Tabs

Version: 2 Type: Tab 2 ratings
1 star 2 stars 3 stars 4 stars 5 stars
comments

Spiders Tab

   
"Spiders" -SYSTeM oF a DoWN
transcribed by Nick Sanchez
 
100% accurate, IM me at markhoppus26268 or email me at 
markhoppus26268@aol.com if you got a problem!
 
 
 
tune down one whole step then to drop B (7th Fret)
 
 intro A        2 times| 1 time then intro A       repeat 3x
-----------------------|--------------------------
-----------------------|--------------------------
-----------------------|--------------------------
-----------------------|--------------------------
-----------------------|--------------------------
--5---5---3---3---3-3--|----6---5---8---6----56--
0---0---0---0---0------|--0---0---0----0---0------
 
 
riff B                         2x
----------------------------
----------------------------
----------------------------
8--8--8--8--8-8-8-8--8--8--8
8--8--8--8--8-8-8-8--8--8--8
8--8--8--8--8-8-8-8--8--8--8
 
riff C
-----------------------------------------------------------
-----------------------------------------------------------
---9-----7-----10-----9-----7\9--------7-----7/9-------5---
-----------------------------------------------------------
---7-----5-----8------7-----5\7--------5-----5/7-------3---
0------0------0----0------0---------0------0---------0-----
 
 
----------------
----------------
---5------5--5--
----------------
---3------3--3--
0------0--------
 
 
riff B(a)
------------------------------
------------------------------
------------------------------
8--8--8--8--8-8-8-8--8--8--8--
8--8--8--8--8-8-8-8--8--8--8--
8--8--8--8--8-8-8-8--8--8--8--
 
-----------------------------
-----------------------------
6--6--6--6-6-6-7--7-7--7--7--
6--6--6--6-6-6-7--7-7--7--7--
6--6--6--6-6-6-7--7-7--7--7--

 
riff A                    4x
--------------------------------
--------------------------------
---7-----7-----5-----5-----5-5--
--------------------------------
---5-----5-----3-----3-----3-3--
0-----0-----0-----0-----0-------
 
riff C
riff A 2x
riff C
riff B
riff C
riff B(a)

solo
for the solo strum  the A and D chord 16x and the rest strum 8x..
got it!
 
        2x                2x
----------|------------------
10-11-14--|---15--16--14--15-
----------|------------------
8--9--12--|-13--14--12--13---
----------|------------------
----------|------------------
 
riff B
riff C
riff B(a)
riff C
riff B(a)
riff A 4x
 
outro 2x
---------------------------------------------------
---------------------------------------------------
---------------------------------------------------
---8-----7-----10-----8-------7/8----7----7/8---5--
---------------------------------------------------
---6-----5------8-----6-------5/6----5----5/6---3--
0------0-----0------0------0------0-----0-----0----


[ Tab from: http://www.guitartabs.cc/tabs/s/system_of_a_down/spiders_tab_ver_2.html ]
Comments