System Of A Down - Spiders Chords & Tabs

 

Spiders Chords & Tabs

System Of A Down Chords & Tabs

Version: 17 Type: Tab 0 ratings
1 star 2 stars 3 stars 4 stars 5 stars
comments

Spiders Tab

   
Band:System of a Down
Album:Self-Title
Song:Spiders
Tuning:C-G-C-F-A-D(like always,and all those who tab different soad tabs in different
tuning are wrong.Its always cgcfad.)
Tabber:SoadFreak II
Location of Tabber:Lost somewhere in the dimensions of Soad.

Intro

e|------------------------------------------------------------------------|
B|------------------------------------------------------------------------|
G|------------------------------------------------------------------------|
D|------------------------------------------------------------------------|
A|----7------7----5-----5------5-------7-----7------5-----5----5----------|
E|--0----0------0-----0----0-----0-0------0------0-----0----0------0-0----|

Intro:Continued

e|--------------------------------------------------------------------------|
B|--------------------------------------------------------------------------|
G|--------------------------------------------------------------------------|
D|--------------------------------------------------------------------------|
A|----8-----7------10-----8----7-8-----7---7-----5----5----5----------------|
E|-0-----0-----0-------0-----0------0----0----0-----0----0---0-0------------|
During the last two zeros the bass plays a simple zero too.

Intro:3x

e|--------------------------------------------------------------------------|
B|--------------------------------------------------------------------------|
G|--------------------------------------------------------------------------|
D|10---10--10-10-10---10-10---10---10--10-10-10--10-------------------------|
A|10---10--10-10-10---10-10---10---10--10-10-10--10-------------------------|
E|10---10--10-10-10---10-10---10---10--10-10-10--10-------------------------|

These numbers are  tens no ones and zeros.

                 Theres a little slid in between these notes
e|------------------\-----/-------------------------------------------------|
B|-------------------\---/--------------------------------------------------|
G|---14--12--15--14--12-14-----12-12/-10-10-10------------------------------|
D|---x---x---x---x---x--x------x--x/--x--x--x-------------------------------|
A|---12--10--13--12--10-12-----10-10/-8--8--8-------------------------------|
E|(0)----------------------(0)-----\----------------------------------------|
                                    \
 These notes slid to nothing.what you need to do is slid to about G|--------|
 and then go back to the next note real fast(the 8 and ten note)  D|-14-----|
 thats how daron(the guitarist)really does it.                    A|-x------|
                                                                  E|-12-----|

e|--------------------------------------------------------------------------|
B|--------------------------------------------------------------------------|
G|--------------------------------------------------------------------------|
D|10---10--10-10-10---10-10---10---8--8--8--7--7--7-------------------------|
A|10---10--10-10-10---10-10---10---8--8--8--7--7--7-------------------------|
E|10---10--10-10-10---10-10---10---8--8--8--7--7--7-------------------------|

e|--------------------------------------------------------------------------|
B|--------------------------------------------------------------------------|
G|-----9--9---7--7--7-7------------------------------10-9--12--10--9-10-----|
D|-----x--x---x--x--x-x repeat as many times needed--x--x--x---x---x-x------|
A|-----7--7---5--5--5-5------------------------------8--7--10--8---7-8------|
E|-(0)----------------------------------------------------------------------|

e|--------------------------------------------------------------------------|
B|--------------------------------------------------------------------------|
G|--9--9---7--7--7----------------------------------------------------------|
D|--x--x---x--x--x 2 times with the riff from the top then...---------------|
A|--7--7---5--5--5----------------------------------------------------------|
E|--------------------------------------------------------------------------|

e|--------------------------------------------------------------------------|
B|--------------------------------------------------------------------------|
G|--------------------------------------------------------------------------|
D|10---10--10-10-10---10-10---10---10--10-10-10--10-------------------------|
A|10---10--10-10-10---10-10---10---10--10-10-10--10-------------------------|
E|10---10--10-10-10---10-10---10---10--10-10-10--10-------------------------|

e|--------------------------------------------------------------------------|
B|--------------------------------------------------------------------------|
G|---14--12--15--14--12-14-----12-12/-10-10-10------------------------------|
D|---x---x---x---x---x--x------x--x/--x--x--x-------------------------------|
A|---12--10--13--12--10-12-----10-10/-8--8--8-------------------------------|
E|(0)----------------------(0)----------------------------------------------|

e|--------------------------------------------------------------------------|
B|--------------------------------------------------------------------------|
G|--------------------------------------------------------------------------|
D|10--10-10-10-10-10-10-10--8-8-8-8---7--7-7-7------------------------------|
A|10--10-10-10-10-10-10-10--8-8-8-8---7--7-7-7------------------------------|
E|10--10-10-10-10-10-10-10--8-8-8-8---7--7-7-7------------------------------|

Solo(HELL YEAH MY FAVORITE PART)These numbers are all tens and the teen numbers.

e|--------------------------------------------------------------------------|
B|10*10*10*10*10*10*10*10*10*10*10*10*10*10*10*10*10*10*10*10*10*10*10*10*10|
G|--------------------------------------------------------------------------|
D|--------------------------------------------------------------------------|
A|--------------------------------------------------------------------------|
E|--------------------------------------------------------------------------|
[ Tab from: http://www.guitartabs.cc/tabs/s/system_of_a_down/spiders_tab_ver_17.html ]
e|--------------------------------------------------------------------------|
B|10*10*10*10*10*10*10*10*10*10*10*10*10*10*10*10*10*10*10*10*10*10*10*10*10|
G|--------------------------------------------------------------------------|
D|--------------------------------------------------------------------------|
A|--------------------------------------------------------------------------|
E|--------------------------------------------------------------------------|

e|--------------------------------------------------------------------------|
B|11*11*11*11*11*11*11*11*11*11*11*11*11*11*11*11*11*11*11*11*11*11*11*11*11|
G|--------------------------------------------------------------------------|
D|--------------------------------------------------------------------------|
A|--------------------------------------------------------------------------|
E|--------------------------------------------------------------------------|


e|--------------------------------------------------------------------------|
B|11*11*11*11*11*11*11*11*11*11*11*11*11*11*11*11*11*11*11*11*11*11*11*11*11|
G|--------------------------------------------------------------------------|
D|--------------------------------------------------------------------------|
A|--------------------------------------------------------------------------|
E|--------------------------------------------------------------------------|

e|--------------------------------------------------------------------------|
B|14*14*14*14*14*14*14*14*14*14*14*14*14*14*14*14*14*14*14*14*14*14*14*14*14|
G|--------------------------------------------------------------------------|
D|--------------------------------------------------------------------------|
A|--------------------------------------------------------------------------|
E|--------------------------------------------------------------------------|

Reapeat that twice then..........

Part A

e|---10---10---10---10---10---10---10---10---11--11--11--11--9---9--9--9----|
B|10---10---10----10----10--10---10--10---11---11--11--11---9--9---9--9-----|
G|--------------------------------------------------------------------------|
D|--------------------------------------------------------------------------|
A|--------------------------------------------------------------------------|
E|--------------------------------------------------------------------------|

Repeat the above twice(part A)

e|--------------------------------------------------------------------------|
B|--------------------------------------------------------------------------|
G|--------------------------------------------------------------------------|
D|10---10--10-10-10---10-10---10---10--10-10-10--10-------------------------|
A|10---10--10-10-10---10-10---10---10--10-10-10--10-------------------------|
E|10---10--10-10-10---10-10---10---10--10-10-10--10-------------------------|


e|--------------------------------------------------------------------------|
B|--------------------------------------------------------------------------|
G|---14--12--15--14--12-14-----12-12/-10-10-10------------------------------|
D|---x---x---x---x---x--x------x--x/--x--x--x-------------------------------|
A|---12--10--13--12--10-12-----10-10/-8--8--8-------------------------------|
E|(0)----------------------(0)----------------------------------------------|


e|--------------------------------------------------------------------------|
B|--------------------------------------------------------------------------|
G|--------------------------------------------------------------------------|
D|10--10-10-10-10-10-10-10--8-8-8-8---7--7-7-7------------------------------|
A|10--10-10-10-10-10-10-10--8-8-8-8---7--7-7-7------------------------------|
E|10--10-10-10-10-10-10-10--8-8-8-8---7--7-7-7------------------------------|

e|--------------------------------------------------------------------------|
B|--------------------------------------------------------------------------|
G|---14--12--15--14--12-14-----12-12/-10-10-10------------------------------|
D|---x---x---x---x---x--x------x--x/--x--x--x-------------------------------|
A|---12--10--13--12--10-12-----10-10/-8--8--8-------------------------------|
E|(0)----------------------(0)----------------------------------------------|

e|--------------------------------------------------------------------------|
B|--------------------------------------------------------------------------|
G|--------------------------------------------------------------------------|
D|10--10-10-10-10-10-10-10--8-8-8-8---7--7-7-7------------------------------|
A|10--10-10-10-10-10-10-10--8-8-8-8---7--7-7-7------------------------------|
E|10--10-10-10-10-10-10-10--8-8-8-8---7--7-7-7------------------------------|

e|------------------------------------------------------------------------|
B|------------------------------------------------------------------------|
G|------------------------------------------------------------------------|
D|------------------------------------------------------------------------|2x
A|----7------7----5-----5------5-------7-----7------5-----5----5----------|
E|--0----0------0-----0----0-----0-0------0------0-----0----0------0-0----|


e|--------------------------------------------------------------------------|
B|--------------------------------------------------------------------------|
G|--------------------------------------------------------------------------|
D|--------------------------------------------------------------------------|
A|----8-----7------10-----8----7-8-----7---7-----5----5----5----------------|
E|-0-----0-----0-------0-----0------0----0----0-----0----0---0-0------------|

e|--------------------------------------------------------------------------|
B|--------------------------------------------------------------------------|
G|--------------------------------------------------------------------------|
D|--------------------------------------------------------------------------|
A|---12------10-----13-----12--------10--12------10----------10-----8-------|
E|-0-----0------0------0------0--------------0--------0---------0-----------|

This Tab Took me about 2 hours to right so any fucker who tries to post it on
some other website will get sued by me.System of a Down Rules!
Comments