System Of A Down - Soldier Side Chords & Tabs

 

Soldier Side Chords & Tabs

System Of A Down Chords & Tabs

Version: 2 Type: Tab 0 ratings
1 star 2 stars 3 stars 4 stars 5 stars
comments

Soldier Side Tab

Song: Soldier's Side
Track: 1
Album: Mesmerize
Artist: System of a Down
Tabbed by: Matt §nyder

Intro
D|--------------------------------------------------------------------------------------|
A|-----------------------------------------------------------------------3---3-4-4/6-6--|
F|----3---3-4-3----2---2-----4-6-6/8\6-4-3---3------2---2-------2-----------------------|
C|---1------------3--------------------------------3--------3----------3---3------------|
G|--1------------3--------------------------------3------------------1------------------|
C|-1----4-------3----3---3/6---------------1---1-3----3---3---3---3---------------------|
[ Tab from: http://www.guitartabs.cc/tabs/s/system_of_a_down/soldier_side_tab_ver_2.html ]
Verse
D|------------------------------------------------------------------|
A|-------------------------------------------------3---3-4-4/6-6----|
F|-----3-----2------4-----3------2-------2-----------3--------------|
C|--------------------------1--------3-----------3------------------| x2
G|---------------------------------------------1--------------------|
C|-1-4---4-3----3-6---6\1------3---3---3----3--------------------1--|

Ending
D|---------------------------------------------------------------|
A|---11---11-12-11-------10---10------12-14-14/16\14-12--11---11-|
F|--8------------------10----------------------------------------|
C|-8-----------------10------------------------------------------|
G|------9-------------------8----8/11-----------------------9----|
C|---------------------------------------------------------------|

D|----------------------------------------|
A|-------10---10--------10----------------|
F|-----10----------10------------10----11~|
C|---10------------------------8-----8----|
G|9-8-------8----8----8----8--------------|
C|---------------------------8------------|
Comments