System Of A Down - Soldier Side Chords & Tabs

 

Soldier Side Chords & Tabs

System Of A Down Chords & Tabs

Version: 1 Type: Tab 0 ratings
1 star 2 stars 3 stars 4 stars 5 stars
comments

Soldier Side Tab

Band- System Of A Down
Song- Soldier Side
[ Tab from: http://www.guitartabs.cc/tabs/s/system_of_a_down/soldier_side_tab.html ]
Intro
Eb|------------------------------------------------------------------------------|
Bb|----------------------------------------------------------------2---2-3-3/5-5-|
Gb|-2---2-3-2-1---------3-5-5/7\5-3-2-2-----1------1-------1---------------------|
Db|-0---------0-----------------------------0----------2---------2---2-----------|
Ab|-0---------0-----------------------------0------------------0-----------------|
Eb|-3-3-------2-2---2/5--------------0--0-0-2----2---2---2---2-------------------|
                                 
Verse
Eb|----------------------------------------------------------------|
Bb|--------------------------------------------------2---2-3-3/5-5-|
Gb|-----2-----1--------3-------2-----1-------1---------2-----------|
Db|------------------------------0-------2---------2---------------| x2
Ab|----------------------------------------------0-----------------|
Eb|-0-3---3-2----2-2/5---5-5\0-----2---2---2---2-------------------|

Ending
Eb|-------------------------------------------------------------------------------------|
Bb|---10---10-11-10-9---9----------11/13-13/15/13-11-10--10--9---9-------9-----------10-|
Gb|---10------------9---9----------12/14-14/15/14-12-10--10--9-------9-----10----9------|
Db|------------------------------------------------------------------------(7)-7---7----|
Ab|------8------------7---7-7-7/10---------------------8---8-/-7---7---7----x-----------|
Eb|-0-----------------------------------------------------------------------7-----------|
Comments