System Of A Down - Soil Chords & Tabs

 

Soil Chords & Tabs

System Of A Down Chords & Tabs

Version: 7 Type: Tab 0 ratings
1 star 2 stars 3 stars 4 stars 5 stars
comments

Soil Tab

   
tuning:cgcfad
questions? e mail me nofxlinolium@aol.com

key: h=hammer on     pm= palm mute  x= sruck but not played
     p=pull off      /=slide        v=vibrato
     b=bend
     ph=pinch harmonic

d|4-444-444-444-444-444-444-444-444-444-444-4-4-4-4|
a|5-555-555-555-555-555-555-555-555-555-555-5-5-5-5|
f|4-444-444-444-444-444-444-444-444-444-444-4-4-4-4|
c|-------------------------------------------------|
g|-------------------------------------------------|
c|-------------------------------------------------|
                        verse
d|------------------|-------------------------------------|repeat
a|------------------|-------------------------------------|
f|------------------|-------------------------------------|
c|------------------|-------------------------------------|
g|310-310-310-310000|-------------------------------------|
c|310-310-310-310000|310-310-310-310000-310-310-310-310000|
  intro to verse    | pm pm pm pm pm pm pm pm pm pm pm pm |

 chorus
d|---------------------------------------------|repeat
a|---------------------------------------------|
f|---------------------------------------------|
c|---------------------------------------------|
g|00-1h3-310-310-310-310000-310-310-310-3100000|
c|00-1h3-310-310-310-310000-310-310-310-3100000|

d|--4-444-444-4444444----7-777-777-777777-----6-666-666-666666|1st brigde
a|------------------------------------------------------------|
f|--1-111-111-1111111----4-444-444-444444-----3-333-333-333333|
c|------------------------------------------------------------|
g|0-------------------0--------------------0------------------|
c|0-------------------0--------------------0------------------|

d|---13-13-13-13-13-13-13-13| then back to verse
a|---13-13-13-13-13-13-13-13| then to chorus
f|---13-13-13-13-13-13-13-13|
c|--------------------------|
g|0-------------------------|
c|0-------------------------|
[ Tab from: http://www.guitartabs.cc/tabs/s/system_of_a_down/soil_tab_ver_7.html ]
2nd bridge
                          intro to solo
d|----------------|repeat|----------------|repeat
a|----------------|      |----------------| 
f|----------------|      |5-555-555-55ph8-|
c|----------------|      |----------------|
g|00-00-00-0-0-0-0|      |----------------|
c|00-00-00-0-0-0-0|      |----------------|
 pm pm pm pm pm pm
intro to solo cont.
                                    solo
d|88888888888888888888888--------|----10-12-13-12-13-15v----
a|-------------------------------|--10-------------------10b
f|-------------------------------|-x------------------------
c|-------------------------------|--------------------------
g|------------------------0-0-0-0|--------------------------
c|------------------------0-0-0-0|0-------------------------
                          pm pm pm

solo cont.
d|-----10-----x-xx|-----------------------------x-xx|*
a|---10---10b-x-xx|-----------------------------x-xx|
f|--x---------x-xx|-----------------------------x-xx|
c|------------x-xx|-----------------------------x-xx|
g|------------x-xx|3h5h8p5p3h5h8p5p3h5h8p5p3h5v-x-xx|
c|0-----------x-xx|-----------------------------x-xx|

solo cont.

d|-----------------------------x-xx|-----------------------------*
a|-----------------------------x-xx|-----------------------------
f|-----------------------------x-xx|5h7h10p7p5h7h10p7p5h7h10p7p5-
c|-----------------------------x-xx|-----------------------------
g|3h5h8p5p3h5h8p5p3h5h8p5p3h5v-x-xx|-----------------------------
c|-----------------------------x-xx|-----------------------------

solo cont from last uh tab measure thing

d|---6-6b-5v-------5-55----555----555-------------13-15b-ph-15b-15-bph|
a|6h8--------6-6----666----666----666-6h8-8b-6v/15--------------------|
f|---------------5h7777-5h7777-5h7777---------------------------------|
c|--------------------------------------------------------------------|
g|--------------------------------------------------------------------|
c|--------------------------------------------------------------------|


that's all i got hope it helped you, i took me forever to figure the solo out and
to tab it out for you guys so......... be thnkfl! oh yeah on the solo part with
the aterix,(just look for it on the right), well the easiest way to do that part
is tapping.Instead of all that stetching that will hurt like no other unless
you.....like.....that.....sort...of...thing.... yeah but um enjoi.
Comments