System Of A Down - Shes Like Heroin Chords & Tabs

 

Shes Like Heroin Chords & Tabs

System Of A Down Chords & Tabs

Version: 1 Type: Bass Tab

Shes Like Heroin Bass Tab

This is to follow up on my guitar tab.

TUNING  Drop Db (Db Ab Db Gb)

No bass in intro.


Verse

|---------------------------|----------------------------|
|---------------------------|----------------------------|
|---------------------------|----------------------------|
|--10-10-10-10-10-10-10-10--|--10-10-10-10-10-10-10-10---|


|-------------------|--------------------|
|-------------------|--------------------|
|-------------------|--------------------|
|--9-9-9-9-9-9-9-9--|--9-9-9-9-9-9-9-9---|


Chorus

|---------------------------------|
|---------------------------------|
|---------------------------------|  X4
|--9--9-7-9--10-12-10-12-10-9-9---|


Weird bit after bridge (bridge has no bass)

|---------------------------|----------------------------|
|---------------------------|----------------------------|
|---------------------------|----------------------------|
|--10-10-10-10-10-10-10-10--|--10-10-10-10-10-10-10-10---|

[ Tab from: http://www.guitartabs.cc/tabs/s/system_of_a_down/shes_like_heroin_btab.html ]
|-------------------|--------------------|
|-------------------|--------------------|
|-------------------|--------------------|
|--9-9-9-9-9-9-9-9--|--9-9-9-9-9-9-9-9---|   X4


final chorus (if thats what you call it)

|---------------------------|----------------------------|
|---------------------------|----------------------------|
|---------------------------|----------------------------|
|--10-10-10-10-10-10-10-10--|--10-10-10-10-10-10-10-10---|


|-------------------|--------------------|
|-------------------|--------------------|
|-------------------|--------------------|
|--9-9-9-9-9-9-9-9--|--9-9-9-9-9-9-9-9---|


|-------------------|--------------------|
|-------------------|--------------------|
|-------------------|--------------------|
|--7-7-7-7-7-7-7-7--|--7-7-7-7-7-7-7-7---|


|-------------------|--------------------|
|-------------------|--------------------|
|-------------------|--------------------|
|--5-5-5-5-5-5-5-5--|--5-5-5-5-5-5-5-5---|


No bass during outro.

END