System Of A Down - Shame Chords & Tabs

 

Shame Chords & Tabs

System Of A Down Chords & Tabs

Version: 3 Type: Tab 0 ratings
1 star 2 stars 3 stars 4 stars 5 stars
comments

Shame Tab

I only know the intro and the chorus, so here they are:

Intro

D|-9--9---9---9-10-9-|
A|------9---9--------|
F|-------------------|
C|-------------------|
G|-------------------|
C|-------------------|
[ Tab from: http://www.guitartabs.cc/tabs/s/system_of_a_down/shame_tab_ver_3.html ]
Repeats until chorus

Chorus

D|-------------------|
A|-------------------|
F|-------------------|
C|-0-0-0-0-1-0-------|
G|-0-0-0-0-1-0-------|
C|-0-0-0-0-1-0-------|

That's pretty much what I know. Enjoy.

Kman.
Comments