System Of A Down - Science Chords & Tabs

 

Science Chords & Tabs

System Of A Down Chords & Tabs

Version: 6 Type: Tab 0 ratings
1 star 2 stars 3 stars 4 stars 5 stars
comments

Science Tab

< > : natural harmonic
x : dead note
~ : let the cord ring

Intro:
d|----------------------------------------|
a|----------------------------------------|
f|--<7>-----------------------------------|
c|------0-0-000-0-0-000-0-0-000-0-0-------| (2 times)
g|----------------------------------------|
C|----------------------------------------|
        Pm. . . . . . . . . . . . .

d|----------------------------------------|
a|----------------------------------------|
f|--<7>-----------------------------------|
c|------0-0-000-0-0-000-0-0---------------| (2 times)
g|----------------------------------------|
C|----------------------------------------|
        Pm. . . . . . . . .

d|----------------------------------------|
a|----------------------------------------|
f|--<7>----<7>-----<7>-----<7>------------|
c|-----0-0-----0-0-----0-0-----0-0--------| (1 time)
g|----------------------------------------|
C|----------------------------------------|
       Pm.     . .     . .     . .

d|----------------------------------------|
a|----------------------------------------|
f|--7-------------------------------------|
c|--x-------------------------------------| (3 times)
g|--5--0-0-0-0-0-0------------------------|
C|-----0-0-0-0-0-0------------------------|
       Pm. . . . .

d|----------------------------------------|
a|----------------------------------------|
f|----------------------------------------|
c|----------5-----------------------------| (1 time)
g|----5-7-8---8-7-------------------------|
C|--8-------------------------------------|

d|----------------------------------------|
a|----------------------------------------|
f|--7-------------------------------------|
c|--x-------------------------------------| (3 times)
g|--5--0-0-0-0-0-0------------------------|
C|-----0-0-0-0-0-0------------------------|
       Pm. . . . .

d|----------------------------------------|
a|----------------------------------------|
f|----------------------------------------|
c|----------5-----------------------------| (1 time)
g|----5-7-8---8-7-------------------------|
C|--8-------------------------------------|

d|----------------------------------------|
a|----------------------------------------|
f|----------------------------------------|
c|--^7--0-0-000-0-0-000-0-0-000-0-0-------| (2 times)
g|--^5------------------------------------|
C|----------------------------------------|
        Pm. . . . . . . . . . . . .

d|----------------------------------------|
a|----------------------------------------|
f|--^7------------------------------------|
c|--^5--0-0-000-0-0-000-0-0---------------| (2 times)
g|----------------------------------------|
C|----------------------------------------|
        Pm. . . . . . . . .

d|----------------------------------------|
a|----------------------------------------|
f|--^7-------^7-------^7-------^7---------|
c|--^5--0-0--^5--0-0--^5--0-0--^5--0-0----| (1 time)
g|----------------------------------------|
C|----------------------------------------|
       Pm.     . .     . .     . .

d|----------------------------------------|
a|----------------------------------------|
f|--7-------------------------------------|
c|--x--0-0-000-0-0-000-0-0-000-0-0-------| (1 time)
g|--5-------------------------------------|
C|----------------------------------------|
        Pm. . . . . . . . . . . . .

d|----------------------------------------|
a|----------------------------------------|
f|--<7>-----------------------------------|
c|------0-0-000-0-0-000-0-0-000-0-0-------| (1 time)
g|----------------------------------------|
C|----------------------------------------|
        Pm. . . . . . . . . . . . .

d|----------------------------------------|
a|----------------------------------------|
f|--<7>-----------------------------------|
c|------0-0-000-0-0-000-0-0---------------| (2 times)
g|----------------------------------------|
C|----------------------------------------|
        Pm. . . . . . . . .

d|----------------------------------------|
a|----------------------------------------|
f|--<7>----<7>-----<7>-----<7>------------|
c|-----0-0-----0-0-----0-0-----0-0--------| (1 time)
g|----------------------------------------|
C|----------------------------------------|
       Pm.     . .     . .     . .

d|----------------------------------------|
a|----------------------------------------|
f|----------------------------------------|
c|----------------------------------------| (1 time)
g|--0--000000--2--222222--3--333333-------|
C|--0--000000--2--222222--3--333333-------|
       Pm . .     . . .      . . . 

d|----------------------------------------|
a|----------------------------------------|
f|----------------------------------------|
c|----------5-----------------------------| (1 time)
g|----5-7-8---8-7-------------------------|
C|--8-------------------------------------|

d|----------------------------------------|
a|----------------------------------------|
f|----------------------------------------|
c|----------------------------------------| (1 time)
g|--0--000000--2--222222--3--333333-------|
C|--0--000000--2--222222--3--333333-------|
       Pm . .     . . .      . . .
d|----------------------------------------|
a|----------------------------------------|
f|----------------------------------------|
c|----------5-----------------------------| (1 time)
g|----5-7-8---8-7-------------------------|
C|--8-------------------------------------|

d|----------------------------------------|
a|----------------------------------------|
f|----------------------------------------|
c|--^7--0-0-000-0-0-000-0-0-000-0-0-------| (2 times)
g|--^5------------------------------------|
C|----------------------------------------|
        Pm. . . . . . . . . . . . .

d|----------------------------------------|
a|----------------------------------------|
f|--<7>-----------------------------------|
c|------0-0-000-0-0-000-0-0---------------| (2 times)
g|----------------------------------------|
C|----------------------------------------|
        Pm. . . . . . . . .

d|----------------------------------------|
a|----------------------------------------|
f|--<7>----<7>-----<7>-----<7>------------|
c|-----0-0-----0-0-----0-0-----0-0--------| (1 time)
g|----------------------------------------|
C|----------------------------------------|
       Pm.     . .     . .     . .

d|----------------------------------------|
a|----------------------------------------|
f|----------------------------------------|
c|----------------------------------------| (1 time)
g|--0--000000--2--222222--3--333333-------|
C|--0--000000--2--222222--3--333333-------|
       Pm . .     . . .      . . . 

d|----------------------------------------|
a|----------------------------------------|
f|----------------------------------------|
c|----------5-----------------------------| (1 time)
g|----5-7-8---8-7-------------------------|
C|--8-------------------------------------|
[ Tab from: http://www.guitartabs.cc/tabs/s/system_of_a_down/science_tab_ver_6.html ]
d|----------------------------------------|
a|----------------------------------------|
f|----------------------------------------|
c|----------------------------------------| (1 time)
g|--0--000000--2--222222--3--333333-------|
C|--0--000000--2--222222--3--333333-------|
       Pm . .     . . .      . . .

d|----------------------------------------|
a|----------------------------------------|
f|----------------------------------------|
c|----------5-----------------------------| (1 time)
g|----5-7-8---8-7-------------------------|
C|--8-------------------------------------|
  
d|----------------------------------------|
a|----------------------------------------|
f|----------------------------------------|
c|----------------------------------------| (1 time)
g|--0~~----2~~----3~~---------------------|
C|--0~~----2~~----3~~---------------------|

d|----------------------------------------|
a|----------------------------------------|
f|----------------------------------------|
c|----------5-----------------------------| (1 time)
g|----5-7-8---8-7-------------------------|
C|--8-------------------------------------|

d|----------------------------------------|
a|----------------------------------------|
f|----------------------------------------|
c|----------------------------------------| (1 time)
g|--0~~----2~~----3~~---------------------|
C|--0~~----2~~----3~~---------------------|

d|----------------------------------------|
a|----------------------------------------|
f|----------------------------------------|
c|----------5-----------------------------| (1 time)
g|----5-7-8---8-7-------------------------|
C|--8-------------------------------------|

   Solo:
d|----------------------------------8-----------|
a|------8-10-----8-10-11----8-10-11---11-10-----|
f|----7--------7----------7-----------------7---|
c|----------------------------------------------| (2 times)
g|--0--------0-----------0----------------------|
C|--0--------0-----------0----------------------|

d|----------------------------------8----8------|
a|------8-10-----8-10-11----8-10-11---11---11---|
f|----7--------7----------7---------------------|
c|----------------------------------------------| (1 time)
g|--0--------0-----------0----------------------|
C|--0--------0-----------0----------------------|
   Pm        .           .

d|-----------------------------------------------|
a|-----8-10-8-7-7-7h8p7-------8-10-11-8-10-10-10-|
f|---7------------------7---7--------------------|
c|-----------------------------------------------|(5 times)
g|-0----------------------0----------------------|
C|-0----------------------0----------------------|
  Pm                      .

d|-----------------------------------------------|
a|-----8-10-8-7-7-7h8p7--------------------------|
f|---7------------------7------------------------|
c|-----------------------------------------------| (1 time)
g|-0---------------------------------------------|
C|-0---------------------------------------------|
  pm


d|-------------------------------------------------|
a|---8-10-11-8-10-10-10-11-8-10-10-10-11-8-10-10-10|
f|--7----------------------------------------------|
c|------------------------------------------------|(1 time)
g|0------------------------------------------------|
C|0------------------------------------------------|
   Pm 

d|----------------------------------------|
a|----------------------------------------|
f|--^7------------------------------------|
c|--^5--0-0-000-0-0-000-0-0---------------| (2 times)
g|----------------------------------------|
C|----------------------------------------|
        Pm. . . . . . . . .

d|----------------------------------------|
a|----------------------------------------|
f|--<7>----<7>-----<7>-----<7>------------|
c|-----0-0-----0-0-----0-0-----0-0--------| (1 time)
g|----------------------------------------|
C|----------------------------------------|
       Pm.     . .     . .     . .

d|----------------------------------------|
a|----------------------------------------|
f|----------------------------------------|
c|----------------------------------------| (1 time)
g|--0--000000--2--222222--3--333333-------|
C|--0--000000--2--222222--3--333333-------|
       Pm . .     . . .      . . .

d|----------------------------------------|
a|----------------------------------------|
f|----------------------------------------|
c|----------5-----------------------------| (1 time)
g|----5-7-8---8-7-------------------------|
C|--8-------------------------------------|

d|----------------------------------------|
a|----------------------------------------|
f|----------------------------------------|
c|----------------------------------------| (1 time)
g|--0--000000--2--222222--3--333333-------|
C|--0--000000--2--222222--3--333333-------|
       Pm . .     . . .      . . .

d|----------------------------------------|
a|----------------------------------------|
f|----------------------------------------|
c|----------5-----------------------------| (1 time)
g|----5-7-8---8-7-------------------------|
C|--8-------------------------------------|

d|----------------------------------------|
a|----------------------------------------|
f|----------------------------------------|
c|----------------------------------------| (1 time)
g|--0------2------3-----------------------|
C|--0------2------3-----------------------|

d|----------------------------------------|
a|----------------------------------------|
f|----------------------------------------|
c|----------5-----------------------------| (1 time)
g|----5-7-8---8-7-------------------------|
C|--8-------------------------------------|

d|----------------------------------------|
a|----------------------------------------|
f|----------------------------------------|
c|----------------------------------------| (1 time)
g|--0------2------3-----------------------|
C|--0------2------3-----------------------|

d|----------------------------------------|
a|----------------------------------------|
f|----------------------------------------|
c|----------5-----------------------------| (1 time)
g|----5-7-8---8-7-------------------------|
C|--8-------------------------------------|

d|----------------------------------------|
a|----------------------------------------|
f|----------------------------------------|
c|----------------------------------------| (1 time)
g|--0~~----2~~----3~~---------------------|
C|--0~~----2~~----3~~---------------------|

d|----------------------------------------|
a|----------------------------------------|
f|----------------------------------------|
c|----------5-----------------------------| (1 time)
g|----5-7-8---8-7-------------------------|
C|--8-------------------------------------|

d|----------------------------------------|
a|----------------------------------------|
f|----------------------------------------|
c|----------------------------------------| (1 time)
g|--0~~----2~~----3~~---------------------|
C|--0~~----2~~----3~~---------------------|

d|----------------------------------------|
a|----------------------------------------|
f|----------------------------------------|
c|----------5-----------------------------| (1 time)
g|----5-7-8---8-7-5-----------------------|
C|--8-------------------------------------|
Comments