System Of A Down - Science Chords & Tabs

 

Science Chords & Tabs

System Of A Down Chords & Tabs

Version: 2 Type: Tab 1 rating
1 star 2 stars 3 stars 4 stars 5 stars
comments

Science Tab

   
Song: "Science"
Artist: System of A Down
Album: Toxicity
Transcribed By: Bryan Bramlett (bryanmb87@aol.com)

Tuning: Drop D, 1 Step Down (C,G,C,F,A,D)

< > - harmonics

INTRO: (this part can be played several diff. ways, this is just the 
easiest way for me to play it...you can switch the harmonic to the 5th
fret on the 4th string and you can also switch the 5th fret on the 5th 
string to an open fret on the 4th string...just mix and match and find
the way you like best)
|-----------------------------------------------------------------|
|-----------------------------------------------------------------|
|-----------------------------------------------------------|
|-----------------------------------------------------------------|
|-----5-5-555-5-5-555-5-5-555-5-5-----5-5-555-5-5-555-5-5-555-5-5-|
|-----------------------------------------------------------------|
PM    . . ... . . ... . . ... . .     . . ... . . ... . . ... . .

|-----------------------------------------------------------------|
|-----------------------------------------------------------------|
|-----------------------------------------------|
|-----------------------------------------------------------------|
|-----5-5-555-5-5-----5-5-555-5-5-----5-5-----5-5-----5-5-----5-5-|
|-----------------------------------------------------------------|
      . . ... . .     . . ... . .     . .     . .     . .     . .

CHORUS:
|---------------------------------------------------------|
|---------------------------------------------------------|
|-7-------------7-------------7---------------------------|
|-7-------------7-------------7---------------------5-----|
|-5-0-0-0-0-0-0-5-0-0-0-0-0-0-5-0-0-0-0-0-0---5-6-8---8-6-|
|---0-0-0-0-0-0---0-0-0-0-0-0---0-0-0-0-0-0-8-------------|
PM  . . . . . .   . . . . . .   . . . . . .

VERSE:
|-------------------------------------------------------------|
|-------------------------------------------------------------|
|-------------------------------------------------------------|
|-------------------------------------------------------------|
|-6-5-5-555-5-5-555-5-5-555-5-5-6-5-5-555-5-5-555-5-5-555-5-5-|
|-------------------------------------------------------------|
PM  . . ... . . ... . . ... . .   . . ... . . ... . . ... . .
[ Tab from: http://www.guitartabs.cc/tabs/s/system_of_a_down/science_tab_ver_2.html ]
|-----------------------------------------------------|
|-----------------------------------------------------|
|-----------------------------------------------------|
|-----------------------------------------------------|
|-6-5-5-555-5-5-6-5-5-555-5-5-6-5-5-6-5-5-6-5-5-6-5-5-|
|-----------------------------------------------------|
    . . ... . .   . . ... . .   . .   . .   . .   . .

VERSE 2:
|-------------------------------------------------------------|
|-------------------------------------------------------------|
|-------------------------------------------------------------|
|-------------------------------------------------------------|
|-6-5-5-555-5-5-555-5-5-555-5-5-6-5-5-555-5-5-555-5-5-555-5-5-|
|-------------------------------------------------------------|
PM  . . ... . . ... . . ... . .   . . ... . . ... . . ... . .

|-----------------------------------------------------------------|
|-----------------------------------------------------------------|
|-----------------------------------------------|
|-----------------------------------------------------------------|
|-----5-5-555-5-5-----5-5-555-5-5-----5-5-----5-5-----5-5-----5-5-|
|-----------------------------------------------------------------|
      . . ... . .     . . ... . .     . .     . .     . .     . .

BRIDGE:
|------------------------|
|------------------------|
|------------------------|
|-0--2--3----------5-----|
|-0--2--3----5-6-8---8-6-|
|-0--2--3--8-------------|

INTERLUDE: (palm mute)
|---------------------------|
|---------------------------|
|-------------------5-------|
|---5-7---7-8---7-8---8-7-8-|
|-5-----5-----5-------------|
|---------------------------|

FILL:
|----------------------|
|----------------------|
|-----0----------------|
|-3-3---3-2--2-2h3-2---|
|--------------------3-|
|----------------------|

INTERLUDE 2:
|--------------------------------------------------------------------|
|--------------------------------------------------------------------|
|-0-2-3-0-2-2-22--0-2-5-3-2-2-22--0-2-3-0-2-2-22-----0---------------|
|-------------------------------------------------33---3-2-2-2h3-2---|
|------------------------------------------------------------------3-|
|--------------------------------------------------------------------|

INTERLUDE FILL:
|-------------------------------|
|-------------------------------|
|-0-2-3-0-2-2-23-0-2-2-23-0-2-2-|
|-------------------------------|
|-------------------------------|
|-------------------------------|

OUTRO:
|----------------------------------------------------------|
|----------------------------------------------------------|
|-7-------------9-------------10---------------------------|
|-7-------------9-------------10---------------------5-----|
|-5-555-555-555-7-777-777-777--8-888-888-888---5-6-8---8-6-|
|--------------------------------------------8-------------|
PM  ... ... ...   ... ... ...    ... ... ...

Comments