System Of A Down - Science Chords & Tabs

 

Science Chords & Tabs

System Of A Down Chords & Tabs

Version: 2 Type: Bass Tab 0 ratings
1 star 2 stars 3 stars 4 stars 5 stars
comments

Science Bass Tab

   
        intro
G----------------------
D----------------------x2
A-5------5------5------
E--000000-000000-000000
                            verse
G------------------------------------------------------------------
D------------------------------------------------------------------
A-6-555555555555-6-555555555555-6-555555-6-55555-6-55555-6-55555-6-
E------------------------------------------------------------------
       chorus
G----------------------
D----------------------x2
A-5------5------5------
E--000000-000000-000000
         bridge
G----------------------
D----------------------x2
A----------------------
E-0\\\\2\\\\3\\\\------    \=hold
         interlude
G----------------------
D----------------------x3
A----------------------
E-0----0----0----------
                                  outro
G---------------------------------------------------------
A---------------------------------------------------------x2
D---------------------------------------------------------
E-5-555-555-555-7-777-777-777-8-888-888-888---------------
[ Tab from: http://www.guitartabs.cc/tabs/s/system_of_a_down/science_btab_ver_2.html ]
Comments