System Of A Down - Science Chords & Tabs

 

Science Chords & Tabs

System Of A Down Chords & Tabs

Version: 1 Type: Bass Tab 2 ratings
1 star 2 stars 3 stars 4 stars 5 stars
comments

Science Bass Tab

there are 3 parts to this song you will have to figure out 
where they come 

prt 1
      ----------------------------------------------------------
      ----------------------------------------------------------
      -4-3333-4-33333-4-33333-4-33-4--4-33333-4-33-3-4-33-4-33--
      ----------------------------------------------------------
      
      ----------
      ----------
      4-33-4-33-
      ----------

[ Tab from: http://www.guitartabs.cc/tabs/s/system_of_a_down/science_btab.html ]
prt 2 ----------------------------------------------------------
      ----------------------------------------------------------
      4-33333-5-555555-6-66666----------------------------------
      ----------------------------------------------------------

      ----------------------------------------------------------
prt 3 ------0-1310----------------------------------------------
      ----3-----------------------------------------------------
      --4-------------------------------------------------------

any corrections (Deathbyfrutella@hotmail.com)
Comments