System Of A Down - Roulette Chords & Tabs

 

Roulette Chords & Tabs

System Of A Down Chords & Tabs

Version: 6 Type: Tab 0 ratings
1 star 2 stars 3 stars 4 stars 5 stars
comments

Roulette Tab

This is the greatest system of a down song, ever.  NO ONE tabbed it correctly,
so I took the privelage of putting everyone to shame!  You can take the
liberty of figuring out the transitions-it's pretty obvious.  This is 
100% correct.  Any problems...email me.


VERSE
e------------------3------------------------------------------
B----4-----4--------------3-------6-----6---------------3-----
G------------------------------------------------5------------
D----------------1---1----------------------------------------
A--3---3-3---3----------1---1---4---4-4----4----------1---1---
E----------------------------------------------4---4----------

CHORUS
e-------------------------------------------------------------
B----4------4-----------------------3------3------------------
G-------------------4------4-----------------------5------3---
D-------------------------------------------------------------
A--3---3--3----3------------------1---1--1----1---------------
E-----------------3---3--3----3------------------4---4--1---1-

[ Tab from: http://www.guitartabs.cc/tabs/s/system_of_a_down/roulette_tab_ver_6.html ]
SOLO
e-8--8--10--11---10--11--13--11--12--13--11--10------10--11--10----------
B------------------------------------------------13--------------13--13--
G------------------------------------------------------------------------
D------------------------------------------------------------------------
A------------------------------------------------------------------------
E------------------------------------------------------------------------

e-------------------------------------------------------------------------
B--8--8---8--9--11--9--8-----8--9--8--------------------------------------
G-------------------------10----------10--10------------------------------
D---------------------------------------------8--8------------------------
A-------------------------------------------------------------------------
E-------------------------------------------------------------------------

e-------------------------------------------------------------------------
B--4s6--4-4--3-3-1-1----------------------------------------------------
G-------------------------------------------------------------------
D-----------------------------------------------------------------------
A-------------------------------------------------------------------------
E-------------------------------------------------------------------------

Comments