System Of A Down - Revenga Chords & Tabs

 

Revenga Chords & Tabs

System Of A Down Chords & Tabs

Version: 6 Type: Tab

Revenga Tab

[Intro: Clean]
D#-------------------------------------------------------------------------|
A#---6------10------11------11-10-9----------------------------------------|
F#---7------9-------10------10-9-10----------------------------------------|
C#---0---------------0-------0---------------------------------------------|
G#---0---------------0-------0---------------------------------------------|
C#---0------------------------------------------------15/4-----------------|


[Verse 1: Trebled Distortion ( TRIPLETS)] x2                   
PM...............................        ...................................
D#----------------------------------------------------------------------------------------|
A#----------------------------------------------------------------------------------------|
F#----------------------------------------------------------------------------------------|
C#----------------------------------------------------------------------------------------|
G#0-000---000---000---000---000-0--8-8-8--0-000---000---000-0-8-7-5--8-7-5--8-7-5--8-7-5--|
C#0-000---000---000---000---000-0--8-8-8--0-000---000---000-0-8-7-5--8-7-5-
8-7-5--8-7-5--|
[Verse 2: Trebled Distortion]
    PM..................................          PM.................
D#----------------------------------------------------------------------------------------|
A#----------------------------------------------------------------------------------------|
F#----------------------------------------------------------------------------------------|
C#---------------------------------------11----------------------------11---12---11-8-7---|
G#---------------------------------------11----------------------------11---12---11-8-7---|
C#--00000---00000---00000---00000---0000-11-------00000---00000---0000-11---12---11-8-7---|

[ Tab from: http://www.guitartabs.cc/tabs/s/system_of_a_down/revenga_tab_ver_6.html ]
[Verse 3: Trebled Distortion]
    PM..................................           PM.................
D#---------------------------------------------------------------------------------------|
A#---------------------------------------------------------------------------------------|
F#---------------------------------------------------------------------------------------|
C#---------------------------------------11----------------------------11---12---14--15--|
G#---------------------------------------11----------------------------11---12---14--15--|
C#--00000---00000---00000---00000---0000-11--------0000---00000---0000-11---12---14--15--|


[Chorus: Trebled Distortion] x2
        PM.........     PM.........     PM.........     PM.........     PM.........     
D#-------------------------------------------------------------------------------------|
A#-------------------------------------------------------------------------------------|
F#-------------------------------------------------------------------------------------|
C#--0---0-0-0-0-0-0-0---0-0-0-0-0-0-7---7-7-7-7-7-7-7---7-7-7-7-7-7-8---8-8-8-8-8-8-8--|
G#--0---0-0-0-0-0-0-0---0-0-0-0-0-0-7---7-7-7-7-7-7-7---7-7-7-7-7-7-8---8-8-8-8-8-8-8--|
C#--0---0-0-0-0-0-0-0---0-0-0-0-0-0-7---7-7-7-7-7-7-7---7-7-7-7-7-7-8---8-8-8-8-8-8-8--|

                   PM.........     PM.........
D#---------------------------------------------|
A#---------------------------------------------|
F#---------------------------------------------|
C#-8-8-8---7---6---6-6-6-6-6-6-3---3-3-3-3-3-3-|
G#-8-8-8---7---6---6-6-6-6-6-6-3---3-3-3-3-3-3-|
C#-8-8-8---7---6---6-6-6-6-6-6-3---3-3-3-3-3-3-|


[Verse 2]

[Verse 3]

[Chorus] x2

[Verse 1] x4

[Intro
[Intro 2: Clean]
D#-------------------------------------------------------------------------|
A#---6------10------11------11-10-9----------------------------------------|
F#---7------9-------10------10-9-10----------------------------------------|
C#---0---------------0-------0---------------------------------------------|
G#---0---------------0-------0---------------------------------------------|
C#---0---------------------------------------------------------------------|


[Solo: Trebled Distortion] x2
D#-------------------------------------------------------------------------|
A#-------------------------------------------------------------------------|
F#------7--------------------10-----------------------8--------------------|
C#--------7---------------------10----------------------8------------------|
G#---5------8--5-4-5-7-----8-------11--8-7-8-10-----6-----9--6-5-6-8-------|
C#-------------------------------------------------------------------------|

[Chorus] x2

[Verse 2]

[Verse 1] x2