System Of A Down - Revenga Chords & Tabs

 

Revenga Chords & Tabs

System Of A Down Chords & Tabs

Version: 2 Type: Tab 0 ratings
1 star 2 stars 3 stars 4 stars 5 stars
comments

Revenga Tab

Artist: 	System of a Down
Song Title: 	Revenga
Album: 		Mezmerize
Tabbed By: 	DaseinMind

NOTE:   This tab was created from my own ear without any other tabs or books for reference.
	"Revenga" is the original work of System of a Down, I did not write this song.

Credits: MuddahPlucka for a tweak on the intro and thabiscuitman for corrected palm 
in verse 1


PS: S.E. Watabashi!

Guitar drop C# (You guys haven't figured out that System uses this ALL THE TIME!?!?!)

[Intro: Clean]
D#-----------5-------6-------6--5--4------------------------------------|
A#---6-------6-------6-------6--6--5------------------------------------|
F#---7-------7-------7-------7--7--7------------------------------------|
C#---7------------------------------------------------------------------|
G#---5------------------------------------------------------------------|
C#---------------------------------------------------14/4---------------|


[Verse 1: Trebled Distortion] x2
    Slide  PM.............................                   PM........................................
D#-----------------------------------------------------------------------------------------------------|
A#-----------------------------------------------------------------------------------------------------|
F#-----------------------------------------------------------------------------------------------------|
C#---------0-000---000---000---000---000-0--8-8-8------------0-000---000---000-0---885--885--885--885--|
G#---------0-000---000---000---000---000-0--8-8-8------------0-000---000---000-0---885--885--885--885--|
C#---------0-000---000---000---000---000-0--8-8-8------------0-000---000---000-0---885--885--885--885--|

[Verse 2: Trebled Distortion]
    PM..................................          PM.................
D#----------------------------------------------------------------------------------------|
A#----------------------------------------------------------------------------------------|
F#----------------------------------------------------------------------------------------|
C#---------------------------------------11----------------------------11---12---11-8-7---|
G#---------------------------------------11----------------------------11---12---11-8-7---|
C#--00000---00000---00000---00000---0000-11-------00000---00000---0000-11---12---11-8-7---|

[ Tab from: http://www.guitartabs.cc/tabs/s/system_of_a_down/revenga_tab_ver_2.html ]
[Verse 3: Trebled Distortion]
    PM..................................           PM.................
D#---------------------------------------------------------------------------------------|
A#---------------------------------------------------------------------------------------|
F#---------------------------------------------------------------------------------------|
C#---------------------------------------11----------------------------11---12---14--15--|
G#---------------------------------------11----------------------------11---12---14--15--|
C#--00000---00000---00000---00000---0000-11--------0000---00000---0000-11---12---14--15--|


[Chorus: Trebled Distortion] x2
        PM.........     PM.........     PM.........     PM.........     PM.........     
D#-------------------------------------------------------------------------------------|
A#-------------------------------------------------------------------------------------|
F#-------------------------------------------------------------------------------------|
C#--0---0-0-0-0-0-0-0---0-0-0-0-0-0-7---7-7-7-7-7-7-7---7-7-7-7-7-7-8---8-8-8-8-8-8-8--|
G#--0---0-0-0-0-0-0-0---0-0-0-0-0-0-7---7-7-7-7-7-7-7---7-7-7-7-7-7-8---8-8-8-8-8-8-8--|
C#--0---0-0-0-0-0-0-0---0-0-0-0-0-0-7---7-7-7-7-7-7-7---7-7-7-7-7-7-8---8-8-8-8-8-8-8--|

                   PM.........     PM.........
D#---------------------------------------------|
A#---------------------------------------------|
F#---------------------------------------------|
C#-8-8-8---7---6---6-6-6-6-6-6-3---3-3-3-3-3-3-|
G#-8-8-8---7---6---6-6-6-6-6-6-3---3-3-3-3-3-3-|
C#-8-8-8---7---6---6-6-6-6-6-6-3---3-3-3-3-3-3-|


[Verse 2]

[Verse 3]

[Chorus] x2

[Verse 1] x4

[Intro (without slide)]

[Intro 2: Clean]
D#-----------5-------6-------6--5--6------------------------------------|
A#---6-------6-------6-------6--6--6------------------------------------|
F#---7-------7-------7-------7--7--7------------------------------------|
C#---7------------------------------------------------------------------|
G#---5------------------------------------------------------------------|
C#----------------------------------------------------------------------|

[Solo: Trebled Distortion] x2
D#---------------------------------------------------------------------------------------|
A#---------------------------------------------------------------------------------------|
F#------7--------------------10-----------------------8--------------------7-------------|
C#--------7---------------------10----------------------8--------------------7-----------|
G#---5------8--5-4-5-7-----8-------11--8-7-8-10-----6-----9--6-5-6-8-----5-----8--5-4-5--|
C#---------------------------------------------------------------------------------------|

[Chorus] x2

[Verse 2]

[Verse 1] x2
Comments