System Of A Down - Revenga Chords & Tabs

 

Revenga Chords & Tabs

System Of A Down Chords & Tabs

Version: 1 Type: Bass Tab 0 ratings
1 star 2 stars 3 stars 4 stars 5 stars
comments

Revenga Bass Tab

   
Band- System Of A Down
Song- Revenga

Intro
G|----------------|----------------|----------------|----------------||
D|----------------|----------------|----------------|----------------||
A|----------------|----------------|----------------|----------------||
E|0----7----8-----|----8-7-5-------|----------------|----------------||

Verse
G|-------------------------------------------------------------------||
D|-------------------------------------------------------------------||
A|-------------------------------------------------------------------||
E|00000000000000000555-0000000000000000053535353-00000000000000000555||


G|-------------------------------------------------------------------||
D|-------------------------------------------------------------------||
A|-------------------------------------------------------------------||
E|000000000000000053535353-55550-55550-55550-55550-55556-------------||


G|-------------------------------------------------------------------||
D|-------------------------------------------------------------------||
A|-------------------------------------------------------------------||
E|55550-55550-5555-7-8-753-------------------------------------------||


G|----------------------------------------------------------------||
D|----------------------------------------------------------------||
A|----------------------------------------------------------------||
E|55550-55550-55550-55550-5555-6--55550-55550-5555-6-7-8-9--------||

Chrous(x2)
G|----------------------------------------------------------------||
D|----------------------------------------------------------------||
A|----------------------------------------------------------------||
E|5-000000--5-000000--7-000000--7-000000--8-000000----------------||


G|----------------------------------------------------------------||
D|----------------------------------------------------------------||
A|----------------------------------------------------------------||
E|8-00-8-7-5-000000-3-000000--------------------------------------||



verse
G|----------------------------------------------------------------||
D|----------------------------------------------------------------||
A|----------------------------------------------------------------||
E|55550-55550-55550-55550-5555-6--55550-55550-5555-7-8-753--------||


G|----------------------------------------------------------------||
D|----------------------------------------------------------------||
A|----------------------------------------------------------------||
E|55550-55550-55550-55550-5555-6--55550-55550-5555-6-7-8-9--------||

[ Tab from: http://www.guitartabs.cc/tabs/s/system_of_a_down/revenga_btab.html ]
Chrous(x2)
G|----------------------------------------------------------------||
D|----------------------------------------------------------------||
A|----------------------------------------------------------------||
E|5-000000--5-000000--7-000000--7-000000--8-000000----------------||


G|----------------------------------------------------------------||
D|----------------------------------------------------------------||
A|----------------------------------------------------------------||
E|8-00-8-7-5-000000-3-000000--------------------------------------||

Verse
G|----------------------------------------------------------------||
D|----------------------------------------------------------------||
A|----------------------------------------------------------------||
E|00000000000000000555-0000000000000000053535353------------------||


G|----------------------------------------------------------------||
D|----------------------------------------------------------------||
A|----------------------------------------------------------------||
E|00000000000000000555-0000000000000000053535353------------------||

Bridge(x3)
G|----------------------------------------------------------------||
D|----------------------------------------------------------------||
A|----------------------------------------------------------------||
E|0000-0-0-0000-0-0--7777-7-7-7777-7-7--8888-8-8-8888-8-8---------||


G|----------------------------------------------------------------||
D|----------------------------------------------------------------||
A|----------------------------------------------------------------||
E|5555-5-5-5555-5-5-----------------------------------------------||


Chrous(x2)
G|----------------------------------------------------------------||
D|----------------------------------------------------------------||
A|----------------------------------------------------------------||
E|5-000000--5-000000--7-000000--7-000000--8-000000----------------||


G|----------------------------------------------------------------||
D|----------------------------------------------------------------||
A|----------------------------------------------------------------||
E|8-00-8-7-5-000000-3-000000--------------------------------------||

Outro
G|----------------------------------------------------------------||
D|----------------------------------------------------------------||
A|----------------------------------------------------------------||
E|55550-55550-55550-55550-55556--55550-55550-5555-7-8-753---------||


G|-------------------------------------------------------------------||
D|-------------------------------------------------------------------||
A|-------------------------------------------------------------------||
E|00000000000000000555-0000000000000000053535353-00000000000000000555||


G|----------------------------------------------------------------||
D|----------------------------------------------------------------||
A|----------------------------------------------------------------||
E|0000000000000000053535353-5-------------------------------------||
Comments