System Of A Down - Radio/video Chords & Tabs

 

Radio/video Chords & Tabs

System Of A Down Chords & Tabs

Version: 3 Type: Tab 3 ratings
1 star 2 stars 3 stars 4 stars 5 stars
comments

Radio/video Tab

Band: System of a Down
Album: Mezmerize
Song: Radio/Video
Transcribed By: Shane Gavin
Email: shanegavin100@hotmail.com
Drop C (CGCFAD) 
Slight Bend = ~


Intro x2
|---------------------------------------------------------------------------------------|
|-----11--------13--------15-----15------15----16p15--13-13------13—15p13--11-11----11--|
|---------------------------------------------------------------------------------------|
|---------------------------------------------------------------------------------------|
|--10---10--12-----12--13-----13-----13--------13-----12-12—-12------12----10-10-10-----|
|---------------------------------------------------------------------------------------|

|---------------------------------------------------------------------------------------|
|-----11--------13--------15-----15------15----16p15--14-14-----14----------------------|
|-------------------------------------------------------------------8--7---5---3---2----|
|---------------------------------------------------------------------------------------|
|--10---10--12-----12--13-----13-----13--------13-----12-12—12--------------------------|
|---------------------------------------------------------------------------------------|


Chorus
 Hey man! Look at me rockin’ out I’m on the Radio
|-------------------------------------------|
|-------------------------------------------|
|-------------------------------------------|
|--5-5---7-7--8-8-8-8-8--10---7-7-7-7-7-7---|
|--5-5---7-7--8-8-8-8-8--10---7-7-7-7-7-7---|
|--5-5---7-7--8-8-8-8-8--10---7-7-7-7-7-7---|

Hey man! Look at me rockin’ out I’m on the Video
|-------------------------------------------|
|-------------------------------------------|
|-------------------------------------------|
|-5-5--7-7-8-8-8-8-8-13-11-11-11-11-11-11---|
|-5-5--7-7-8-8-8-8-8-13-11-11-11-11-11-11---|
|-5-5--7-7-8-8-8-8-8-13-11-11-11-11-11-11---|

With Danny and Lisa
|--------------------|
|--------------------|
|--------------------|
|--12--10--8--7--5---|
|--12--10--8--7--5---|
|--12--10--8--7--5---|

Verse
Play this Ska all upstrokes its quite hard to hear but this is what I got
|--3--3--3--3--3--3--3--3--1--1--1--1--1--1--1--1--|
|--3--3--3--3--3--3--3--3--1--1--1--1--1--1--1--1--|
|--3--3--3--3--3--3--3--3--2--2--2--2--2--2--2--2--|
|--------------------------------------------------|
|--------------------------------------------------|
|--------------------------------------------------|


Hey man! Look at me rockin’ out I’m on the Radio
|-------------------------------------------|
|-------------------------------------------|
|-------------------------------------------|
|--5-5---7-7--8-8-8-8-8--10---7-7-7-7-7-7---|
|--5-5---7-7--8-8-8-8-8--10---7-7-7-7-7-7---|
|--5-5---7-7--8-8-8-8-8--10---7-7-7-7-7-7---|

Hey man! Look at me rockin’ out I’m on the Video
|-------------------------------------------|
|-------------------------------------------|
|-------------------------------------------|
|-5-5--7-7-8-8-8-8-8-13-11-11-11-11-11-11---|
|-5-5--7-7-8-8-8-8-8-13-11-11-11-11-11-11---|
|-5-5--7-7-8-8-8-8-8-13-11-11-11-11-11-11---|
[ Tab from: http://www.guitartabs.cc/tabs/s/system_of_a_down/radiovideo_tab_ver_3.html ]
With Danny and Lisa
|--------------------|
|--------------------|
|--------------------|
|--12--10--8--7--5---|
|--12--10--8--7--5---|
|--12--10--8--7--5---|

Verse
This time it sort of fades out into the next part
|--3--3--3--3--3--3--3--3--1--1--1--1--1--1--1--1--|
|--3--3--3--3--3--3--3--3--1--1--1--1--1--1--1--1--|
|--3--3--3--3--3--3--3--3--2--2--2--2--2--2--2--2--|
|--------------------------------------------------|
|--------------------------------------------------|
|--------------------------------------------------|

Fade into this
|--------------------------------------------------------------|
|-----11--------13--------15-----15------15--------------------|
|--------------------------------------------------------------|
|---------------------------------------------10--7-7-7-7-7-7--|
|--10---10--12-----12--13-----13-----13-------10--7-7-7-7-7-7--|
|---------------------------------------------10--7-7-7-7-7-7--|

|--------------------------------------------------------------------|
|-----11--------13--------15-----15------15--------------------------|
|--------------------------------------------------------------------|
|---------------------------------------------13--11-11-11-11-11-11--|
|--10---10--12-----12--13-----13-----13-------13--11-11-11-11-11-11--|
|---------------------------------------------13--11-11-11-11-11-11--|

With Danny and Lisa
|--------------------|
|--------------------|
|--------------------|
|--12--10--8--7--5---|
|--12--10--8--7--5---|
|--12--10--8--7--5---|


Much slower tempo more reggae style 
|--3--3--3--3--3--3--3--3--1--1--1--1--1--1--1--1--|
|--3--3--3--3--3--3--3--3--1--1--1--1--1--1--1--1--|
|--3--3--3--3--3--3--3--3--2--2--2--2--2--2--2--2--|
|--------------------------------------------------|
|--------------------------------------------------|
|--------------------------------------------------|

Solo
|----------------------------------------------------------------------------|
|----------------------------------------------------------------------------|
|--7-8-7--7-8-7--7-8-10-10-10-10-10-8-7--8-7---------------------------------|
|---------------------------------------------10-10-10-8-7---7-8-10~-10-8-7~-|
|----------------------------------------------------------------------------|
|----------------------------------------------------------------------------|

|----------------------------------------------------------------------------|
|----------------------------------------------------------------------------|
|--7-8-7--7-8-7--7-8-10-10-10-10-10-8-7--8-7---------------------------------|
|---------------------------------------------10-10-10-8-7~--7-8-10~-10-8-7~-|
|----------------------------------------------------------------------------|
|----------------------------------------------------------------------------|

Each section is played multiple times
La la la lalala la etc...
|------------|--------------|
|------------|--------------|
|------------|--------------|
|--8p7p5-5-5-|--10p8p7-7-7--|
|------------|--------------|
|------------|--------------|


I have not yet figured out the rest because of all the tremolo and stuff.
That’s it if you if you have any comments e-mail me or if you have the rest 
of the solo hope you enjoy!!!
Comments