System Of A Down - Radio/video Chords & Tabs

 

Radio/video Chords & Tabs

System Of A Down Chords & Tabs

Version: 2 Type: Tab 3 ratings
1 star 2 stars 3 stars 4 stars 5 stars
comments

Radio/video Tab

   
Title:  Radio/Video
Artist: System Of A Down
Album:  Mezmerize
Tabber: kritzstapf

[Intro]

                             ___________________________________
                            |1                                       _
                                                                      |
e|---5-------7-----9---9---9-10p9-7---7---7---9p7-5---5---5-----|     |
B|--------------------------------------------------------------|     |
G|--------------------------------------------------------------|     |
D|-4---x-x-6---6-7---7---7----------6---6---6-------4---4---x-x-|     |
A|--------------------------------------------------------------|     |
E|--------------------------------------------------------------|     |
                                                                      | 2x
                          e|-10p9-8---8---8---------------------|     |
                          B|------------------------------------|     |
                          G|------------------6-4---------------|     |
                          D|--------6---6---6-----7-6-----------|     |
                          A|------------------------------------|     |
                          E|------------------------------------|    _|

[Chorus]

                                                 _
D|-4-4--6-6--7--7-6...---4-4--6-6--7--7-10...--|  |
A|-4-4--6-6--7--7-6...---4-4--6-6--7--7-10...--|  | 2x
E|-2-2--4-4--5--5-4...---2-2--4-4--5--5-8-...--| _|

D|-11-9-7-6-|
A|-11-9-7-6-|
E|-9--7-5-4-|


[Verse]

Offbeat:

e|----------------|
B|-10------9------|
G|-11--8x--9--8x--|
D|-11------9------|
A|-9-------7------|
E|----------------|
[ Tab from: http://www.guitartabs.cc/tabs/s/system_of_a_down/radiovideo_tab_ver_2.html ]
Later these chords a played in a different raggae rythm..

[Solo]
                                                                   _
e|--------------------------------------------------------------|   |
B|--------------------------------------------------------------|   |
G|-6-7-6--6-6-7-6--6-6-7-9--9-9--9-9-7-6--7-6-------------------|   |
D|--------------------------------------------9-9--9-9-7-6b7r---|   |
A|--------------------------------------------------------------|   |
E|--------------------------------------------------------------|   |
                                                                    | 2x
e|--------------------------------------------------------------|   |
B|--------------------------------------------------------------|   |
G|--------------------------------------------------------------|   |
D|-6-7-9b11r-9-7-6b7r-------------------------------------------|   |
A|--------------------------------------------------------------|   |
E|--------------------------------------------------------------|  _|

e|--------------|-----------|    |-----------|
B|--------------|-----------|    |-----------|
G|--------------|-----------|    |-----------|
D|-6-6--7-6-----|-6-7-6-----| 3x |-6-7-6-----| 4x ...
A|----------9-9-|-------9-9-|    |-------7-7-|
E|--------------|-----------|    |-----------|

The end is like this:

e|-------------/16-14--------------------/16-14-------|
B|-14-12-15-14--------15-14--12----15-14--------15-14-|
G|------------------------------13--------------------|
D|----------------------------------------------------|  ...
A|----------------------------------------------------|
E|----------------------------------------------------|


This should give you an idea how to play the song ;)

kritzstapf :D
Comments