System Of A Down - Question Chords & Tabs

 

Question Chords & Tabs

System Of A Down Chords & Tabs

Version: 2 Type: Bass Tab 0 ratings
1 star 2 stars 3 stars 4 stars 5 stars
comments

Question Bass Tab

   
-------------------------------------------------------------------------------
			     QUESTION! - System of a Down
-------------------------------------------------------------------------------

Tabbed By : Jacob Bartlett
e-mail: acobjoe@subpatch.com

Tuning:Dropped C - C-G-C-F

Alright Guys, I think I've got this down. But if I don't, and you know, PLEASE
email me and I will make the corrections.-> acobjoe@subpatch.com Some of the
11's were hard to tell that they were 11's and not double 1's so I bared them
out so you can see then easily. But they're played really fast, just like the
rest of the double notes. To get the timing you'll have to listen to the song,
but it should all be here. Don't forget to rate!

(0:16) Intro
F|------------|  |--------------|  |------------|
C|------------|  |--------------|  |------------|
G|---4--------|  |-----4--------|  |--hold note-|
C|-4--9-77967-|x4|-4-44-9977967-|x4|-4----------|

(0:32) Verse1
F|--------------------|
C|----4--------4------|
G|--47-75745-47-75745-|
C|-4--------4---------|

F|------------------------|
C|----4-------------------|
G|--47-75745-2-/9\2-2/9\2-|
C|-4----------------------|

F|--------------------|
C|----4--------4------|
G|--47-75745-47-75745-|
C|-4--------4---------|

F|-------------------------------------|
C|----4--------------------------------|
G|--47-75745-2-/9\2-2/9\2-2-/9\2-2/9\2-|
C|-4-----------------------------------|

(0:50) Pre-Chorus
F|---------------|
C|---------------|
G|---------------|
C|-4---0---4---0-|

(0:58) Chorus
F|---------------------------------------|
C|---------------------------------------|
G|--------------------------2-22222-2222-|
C|-4-44444-44444-44444-4444--------------|
[ Tab from: http://www.guitartabs.cc/tabs/s/system_of_a_down/question_btab_ver_2.html ]
F|----------------------------------------------------|
C|----------------------------------------------------|
G|--------------------------2-22222-2222-2-22222-2222-|
C|-4-44444-44444-44444-4444---------------------------|

(1:17)
F|------------|
C|------------|
G|---4--------|
C|-4--9-77967-|x2

(1:20) Verse 2
F|--------------------|
C|----4--------4------|
G|--47-75745-47-75745-|
C|-4--------4---------|

F|------------------------|
C|----4-------------------|
G|--47-75745-2-/9\2-2/9\2-|
C|-4----------------------|

F|--------------------|
C|----4--------4------|
G|--47-75745-47-75745-|
C|-4--------4---------|

F|-------------------------------------|
C|----4--------------------------------|
G|--47-75745-2-/9\2-2/9\2-2-/9\2-2/9\2-|
C|-4-----------------------------------|

(1:28) Pre-Chorus)
F|---------------|
C|---------------|
G|---------------|
C|-4---0---4---0-|

(1:46) Chorus
F|---------------------------------------|
C|---------------------------------------|
G|--------------------------2-22222-2222-|
C|-4-44444-44444-44444-4444--------------|

F|----------------------------------------------------------------|
C|----------------------------------------------------------------|
G|--------------------------2-22222-2222-2-22222-2222-------------|
C|-4-44444-44444-44444-4444---------------------------4-hold note-|

(2:09)
F|------------|  |---------------|  |--Not sure if this--|
C|------------|  |---------------|  |----is right--------|
G|---4--------|  |-----4---------|  |-----4-44-----------|
C|-4--9-77967-|x4|-4-44-99-77967-|x4|-4-44----9-997-7967-|x4

F|------------|
C|------------|
G|---4--------|
C|-4--9-77967-|x4

(2:38) Chorus
F|---------|   |----------|
C|---------|   |----------|
G|---FAST!-|   |-22222222-| 
C|-4-44440-|x12|----------|x4

F|---------|   |----------|
C|---------|   |----------|
G|---------|   |-22222222-| 
C|-4-44440-|x12|----------|x8

(3:02)
F|----------------|  |-----------|-------------------------------|
C|----------------|  |-----------|-------------------------------|
G|---4------------|  |-Hold Note-|---4----------4----------------|
C|-4--9-77967-----|x4|4----------|-4--9-77967-4--9-77967---------|
Comments