System Of A Down - Psycho Chords & Tabs

 

Psycho Chords & Tabs

System Of A Down Chords & Tabs

Version: 5 Type: Tab 0 ratings
1 star 2 stars 3 stars 4 stars 5 stars
comments

Psycho Tab

   
By Zerpha
Created - 6-9-03

System of A Down - Psycho

Low C Tuning

~ = Bend

D
A
F
C
G
C

After Bass Intro
Intro
-12-12-12-12-12-12-12-12-10-10-10-10-10-10-10-10-
-------------------------------------------------
-------------------------------------------------
-------------------------------------------------
-------------------------------------------------
-------------------------------------------------2x



-13---13---13---13-13-13-13-13-13-13-13-13-13-13-
-------------------------------------------------
-------------------------------------------------
-------------------------------------------------
-------------------------------------------------
-------------------------------------------------



Chorus
(Psycho---groupie---cocaine---crazy)
-------------------------------------------------
-------------------------------------------------
-------------------------------------------------
-------------------------------------------------
-0-2-3----0-2-3----0-2-3----0-2-3----------------
-0-2-3----0-2-3----0-2-3----0-2-3----------------



(Psycho,groupie,cocaine,crazy) 
-------------------------------------------------------2x
-------------------------------------------------------
-------------------------------------------------------
-------------------------------------------------------
-0-2-3--0-2-3--0-2-3--0-2-3--0-2-3--0-2-3--0-2-3--0-2-3
-0-2-3--0-2-3--0-2-3--0-2-3--0-2-3--0-2-3--0-2-3--0-2-3




Psycho groupie cocaine crazy
-------------------------------------------------------
-------------------------------------------------------
-------------------------------------------------------
-------------------------------------------------------
-0-2-3--0-2-3--0-2-3--0-2-3--0-2-3--0-2-3--0-2-3--0-2-3
-0-2-3--0-2-3--0-2-3--0-2-3--0-2-3--0-2-3--0-2-3--0-2-3



Do you really want to think and stop
-------------------------------------------------
-------------------------------------------------
-------------------------------------------------
---------------10--10--10--10--------------------
-0--0-0--0--0--8---8---8---8---------------------
-0--0-0--0--0------------------------------------




(Psycho---groupie---cocaine---crazy)
-------------------------------------------------
-------------------------------------------------
-------------------------------------------------
-------------------------------------------------
-0-2-3----0-2-3----0-2-3----0-2-3----------------
-0-2-3----0-2-3----0-2-3----0-2-3----------------




(Psycho,groupie,cocaine,crazy) 
-------------------------------------------------------2x
-------------------------------------------------------
-------------------------------------------------------
-------------------------------------------------------
-0-2-3--0-2-3--0-2-3--0-2-3--0-2-3--0-2-3--0-2-3--0-2-3
-0-2-3--0-2-3--0-2-3--0-2-3--0-2-3--0-2-3--0-2-3--0-2-3




Do you really want to think and stop
-------------------------------------------------
-------------------------------------------------
-------------------------------------------------
---------------10--10--10--10--------------------
-0--0-0--0--0--8---8---8---8---2--2-2--2--2--0---
-0--0-0--0--0------------------2--2-2--2--2--0---


[ Tab from: http://www.guitartabs.cc/tabs/s/system_of_a_down/psycho_tab_ver_5.html ]
So you want the world to stop

                        ~        ~
F:1--1-1-1-1-1-1-2--2-4-5-7-5-4--3-3-3-3-3-3-3-5-3-



(Psycho---groupie---cocaine---crazy)
-------------------------------------------------
-------------------------------------------------
-------------------------------------------------
-------------------------------------------------
-0-2-3----0-2-3----0-2-3----0-2-3----------------
-0-2-3----0-2-3----0-2-3----0-2-3----------------



So you want to see the show,
You really don't have to be a ho
                        ~        ~
F:1--1-1-1-1-1-1-2--2-4-5-7-5-4--3-3-3-3-3-3-3-5-3-




(Psycho---groupie---cocaine---crazy)
-------------------------------------------------
-------------------------------------------------
-------------------------------------------------
-------------------------------------------------
-0-2-3----0-2-3----0-2-3----0-2-3----------------
-0-2-3----0-2-3----0-2-3----0-2-3----------------



(Psycho,groupie,cocaine,crazy) 
-------------------------------------------------------2x
-------------------------------------------------------
-------------------------------------------------------
-------------------------------------------------------
-0-2-3--0-2-3--0-2-3--0-2-3--0-2-3--0-2-3--0-2-3--0-2-3
-0-2-3--0-2-3--0-2-3--0-2-3--0-2-3--0-2-3--0-2-3--0-2-3




Stop your eyes from flowing out
-------------------------------------------------
-------------------------------------------------
-------------------------------------------------
---------------10--10--10--10--------------------
-0--0-0--0--0--8---8---8---8---2--2-2--2--2--0---
-0--0-0--0--0------------------2--2-2--2--2--0---




So you want the world to stop

                        ~        ~
F:1--1-1-1-1-1-1-2--2-4-5-7-5-4--3-3-3-3-3-3-3-5-3-



(Psycho---groupie---cocaine---crazy)
-------------------------------------------------
-------------------------------------------------
-------------------------------------------------
-------------------------------------------------
-0-2-3----0-2-3----0-2-3----0-2-3----------------
-0-2-3----0-2-3----0-2-3----0-2-3----------------





So you want to see the show,
You really don't have to be a ho
                        ~        ~
F:1--1-1-1-1-1-1-2--2-4-5-7-5-4--3-3-3-3-3-3-3-5-3-





(Psycho---groupie---cocaine---crazy)
-------------------------------------------------
-------------------------------------------------
-------------------------------------------------
-------------------------------------------------
-0-2-3----0-2-3----0-2-3----0-2-3----------------
-0-2-3----0-2-3----0-2-3----0-2-3----------------




Solo
  ~                          ~                      ~
A:12----12-12-13-13-12-12r13-10--10-10r12-10-9-9-10-12
        ~                         ~     ~
A:10-10r12---12-13-17-17-13-12r13r10-10-12-10-9-9-9-10

A:9-9-9-12-10-9-10-9-F:9

A:12-12-12-12-12-12-10-12-13-13-12-12-10-10-10-10-12-12
F:-9--9--9--9--9--9--9--9--9--9--9--9--9--9--9--9--9--9

A:10-9-9-10-12-12-12-12-12-12-12-10-12-12-12-12-12-12-12-12
F:-9---------9--9--9--9--9--9--9--9--9--9--9--9--9--9--9--9

A:10-13-13-12-12-10-10-12-12-10-9>>
F:-9--9--9--9--9--9--9--9--9--9--9>


That's about it

Hopefuly the solo wasn't too confusing

please rate.
Comments