System Of A Down - Psycho Chords & Tabs

 

Psycho Chords & Tabs

System Of A Down Chords & Tabs

Version: 2 Type: Tab 0 ratings
1 star 2 stars 3 stars 4 stars 5 stars
comments

Psycho Tab

#----------------------------------PLEASE NOTE--------------------------------#
#This file is the author's own work and represents their interpretation of the#
#song. You may only use this file for private study, scholarship, or research.#
#-----------------------------------------------------------------------------#
#-- File created with Instab - http://www.pconline.com/~smcarey/instab.html --#
#-----------------------------------------------------------------------------#

Author/Artist: System of a Down
Title: Phsyco
Album: Toxicity
Transcribed by: Chris Angel
------------------------------------------------------------------------------
-12xx-12xx-12xx-12xx-12xx-12xx-12xx-12xx-10xx-10xx-10xx-10xx-10xx-10xx-10xx---
------------------------------------------------------------------------------
------------------------------------------------------------------------------
------------------------------------------------------------------------------
------------------------------------------------------------------------------
                          Intro                                               

------------------------------------------------------------------------------
-10xx-12xx-12xx-12xx-12xx-12xx-12xx-12xx-12xx-10xx-10xx-10xx-10xx-10xx-10xx---
------------------------------------------------------------------------------
------------------------------------------------------------------------------
------------------------------------------------------------------------------
------------------------------------------------------------------------------
                                                                              

------------------------------------------------------------------------------
-10xx-10xx-13b----------------------------------------------------------------
------------------------------------------------------------------------------
------------------------------------------------------------------------------
------------------------------------------------------------------------------
------------------------------------------------------------------------------
                  bend the thirteen up 1 1/2                                  
[ Tab from: http://www.guitartabs.cc/tabs/s/system_of_a_down/psycho_tab_ver_2.html ]
-------------|-------------------|--------------------------------------------
-------------|-------------------|--------------------------------------------
-------------|-------------------|--------------------------------------------
-220-220-220-|-32032032032032032-|--------------------------------------------
-220-220-220-|-32032032032032032-|-22222222-333333333-222222222222222222------
-220-220-220-|-32032032032032032-|-22222222-333333333-222222222222222222------
 Bridge          Chorus            Bridge                                     

------------------------------------------------------------------------------
------------------------------------------------------------------------------
--5-5-5-5-5h6h7h-5-3--5-6-7-9-10-9p8p7p-7-5---3-3-3-3-3h4h5h-3----------------
------------------------------------------------------------------------------
------------------------------------------------------------------------------
------------------------------------------------------------------------------
  Verse                                                                       

-------------------------------------------------------12---------------------
-12-10-12-13-12-13p12h-----12-----------------12-10-12----10-12------12-11----
-----------------------14b----14-13-14-14b----------------------12b-----------
------------------------------------------------------------------------------
------------------------------------------------------------------------------
------------------------------------------------------------------------------
                             solo                                             

----------------------------------|---------0----0----0---0----0----0----0----
-10-9-9-10-9-9-10-12-10-9-10-9-10-|------12---12---12--12---12---12---12------
----------------------------------|-------------------------------------------
----------------------------------|-------------------------------------------
----------------------------------|-------------------------------------------
----------------------------------|-------------------------------------------
                                        Ending                                

----0----0----0----0----0----0----0----0----0----0----0----0----0----0----0---
-12---13---13---13---13---13---13---13---13---10---10---10---10---10---10-----
------------------------------------------------------------------------------
------------------------------------------------------------------------------
------------------------------------------------------------------------------
------------------------------------------------------------------------------
                                                                              

----0----0----0----0----0----0---0---0---0---0---0----------------------------
-10---10---11---11---11---11---9---9---9---9---9------------------------------
------------------------------------------------------------------------------
------------------------------------------------------------------------------
------------------------------------------------------------------------------
------------------------------------------------------------------------------
                                                                              

Comments