System Of A Down - Prison Song Chords & Tabs

 

Prison Song Chords & Tabs

System Of A Down Chords & Tabs

Version: 7 Type: Tab 0 ratings
1 star 2 stars 3 stars 4 stars 5 stars
comments

Prison Song Tab

   
Artist: System of a Down
Song: Prison Song
Album: Toxicity
Tabbed By: Sean Fogale

Tuning for this song is:

C#
G#
E
B
F#
B

Intro:
|------|-----------------------|---------------------------
|------|-----------------------|---------------------------
|------|-----------------------|----------------3-3-3-3----
|------|-----------------------|----------------3-3-3-3----
|-0----|--0-1-3-1-0-1-3-1--|--0-1-3-1-0-1--1-1-1-1---------
|-0----|--0-1-3-1-0-1-3-1--|--0-1-3-1-0-1------------------


----------------------------------------------------
----------------------------------------------------
-----------------------------------3-3-3-3----------
-----------------------------------3-3-3-3----------
-0-1-3-1-0-1-3-1-0-1-3-1------1-1-1-1---------------
-0-1-3-1-0-1-3-1-0-1-3-1----------------------------
                           
                       [Pause]

|----------------------------------------------------------
|----------------------------------------------------------
|----------------------------------------------------------
|----------------------------------------------------------
|--0-1-0-3-0-1-0---0-1-0-3-0-1-0---0-1-0-3-0-1-0---0-1-0---
|--0-1-0-3-0-1-0---0-1-0-3-0-1-0---0-1-0-3-0-1-0---0-1-0---
[ Tab from: http://www.guitartabs.cc/tabs/s/system_of_a_down/prison_song_tab_ver_7.html ]

|--------------------|---------------------------------
|--------------------|---------------------------------
|--------------------|------------------3-3-3-3--------
|--------------------|------------------3-3-3-3--------
|---0-3-1-0-1-3-1----|--0-1-3-1-0-1---1-1-1-1----------
|---0-3-1-0-1-3-1----|--0-1-3-1-0-1--------------------
                                       

|------------------------------
|------------------------------
|--3-------3------3-------3----
|1---1---1---1--1---1--1--1----
|------------------------------
|------------------------------
Riff 2

|---------------|------------------------|-----------------
|---------------|-----3---------2--------|-----------------
|------------3--|-------3---------2------|-----------------
|------------3--|---------3---------2----|-----------------
|-0--1--0---1---|-----------1--0---------|-0-0-0-0-0-0-0-0-
|-0--1--0-------|------------------------|-0-0-0-0-0-0-0-0-

-----------------------------------------------------------
-----------------------------------------------------------
--------------3-3-3-3-------------------------------3-3-3-3
--------------3-3-3-3-------------------------------3-3-3-3
0-0-0-0-0-0---1-1-1-1---0-0---0-0-0---0-0-0--0-0-0--1-1-1-1
0-0-0-0-0-0--------------0-0---0-0-0---0-0-0--0-0-0--------
Comments