System Of A Down - Prison Song Chords & Tabs

 

Prison Song Chords & Tabs

System Of A Down Chords & Tabs

Version: 6 Type: Tab 0 ratings
1 star 2 stars 3 stars 4 stars 5 stars
comments

Prison Song Tab

   
This tab is a corrected version of version 3 i figured out the verse was wrong so here is the right version.


Tuning for song is:
D
A
F
C
G
C

I'm not quite sure about the verse, it sounds good to me though.

Intro:
D:-------------------------------------------
A:-------------------------------------------
F:-------------------------------------------
C:-0------0-1-3-1-0-1-3-1-0-1-3-1-0-1-3-3-3-3
G:-0------0-1-3-1-0-1-3-1-0-1-3-1-0-1-1-1-1-1
C:-0------0-1-3-1-0-1-3-1-0-1-3-1-0-1--------

D:------------------------------------
A:------------------------------------
F:------------------------------------
C:-0-1-3-1-0-1-3-1-0-1-3-1-0-1-3-3-3-3
G:-0-1-3-1-0-1-3-1-0-1-3-1-0-1-1-1-1-1
C:-0-1-3-1-0-1-3-1-0-1-3-1-0-1--------

D:------------------------
A:------------------------
F:------------------------
C:-0-1-3-1-0-1-3-1-0-1-3-1
G:-0-1-3-1-0-1-3-1-0-1-3-1
C:-0-1-3-1-0-1-3-1-0-1-3-1

Chorus 1:
D:--------------------------------------------------------
A:--------------------------------------------------------
F:--------------------------------------------------------
C:-3-3-3-3-0-1-0-3-0-1-0-0-1-0-3-0-1-0-0-1-0-3-0-1-0-0-1-0
G:-1-1-1-1-0-1-0-3-0-1-0-0-1-0-3-0-1-0-0-1-0-3-0-1-0-0-1-0
C:---------0-1-0-3-0-1-0-0-1-0-3-0-1-0-0-1-0-3-0-1-0-0-1-0

D:--------------------------------------------------------
A:--------------------------------------------------------
F:--------------------------------------------------------
C:-3-3-3-3-0-1-0-3-0-1-0-0-1-0-3-0-1-0-0-1-0-3-0-1-0-0-1-0
G:-1-1-1-1-0-1-0-3-0-1-0-0-1-0-3-0-1-0-0-1-0-3-0-1-0-0-1-0
C:---------0-1-0-3-0-1-0-0-1-0-3-0-1-0-0-1-0-3-0-1-0-0-1-0
[ Tab from: http://www.guitartabs.cc/tabs/s/system_of_a_down/prison_song_tab_ver_6.html ]
D:--------------------------------------------
A:--------------------------------------------
F:--------------------------------------------
C:-3-3-3-3-0-1-3-1-0-1-3-1-0-1-3-1-0-1-3-3-3-3
G:-1-1-1-1-0-1-3-1-0-1-3-1-0-1-3-1-0-1-1-1-1-1
C:---------0-1-3-1-0-1-3-1-0-1-3-1-0-1--------

D:--------------------------------------------------------
A:--------------------------------------------------------
F:--------------------------------------------------------
C:-0-1-0-3-0-1-0-0-1-0-3-0-1-0-0-1-0-3-0-1-0-0-1-0-3-3-3-3
G:-0-1-0-3-0-1-0-0-1-0-3-0-1-0-0-1-0-3-0-1-0-0-1-0-1-1-1-1
C:-0-1-0-3-0-1-0-0-1-0-3-0-1-0-0-1-0-3-0-1-0-0-1-0--------

Verse 1:
D:-------
A:-------
F:---3---
C:-1---1-
G:-------
C:-------

Chorus 2:
D:--------------------------------------------------------
A:--------------------------------------------------------
F:--------------------------------------------------------
C:-3-3-3-3-0-1-0-3-0-1-0-0-1-0-3-0-1-0-0-1-0-3-0-1-0-0-1-0
G:-1-1-1-1-0-1-0-3-0-1-0-0-1-0-3-0-1-0-0-1-0-3-0-1-0-0-1-0
C:---------0-1-0-3-0-1-0-0-1-0-3-0-1-0-0-1-0-3-0-1-0-0-1-0

D:--------
A:--------
F:--------
C:-3-3-3-3
G:-1-1-1-1
C:--------

VERSE 2 (Same as verse 1)

CHORUS 1

Bridge:
D:--------------------------------
A:--------------------------------
F:--------------------------------
C:-3-3-3-3-3-3-3-3-2-2-2-2-2-2-2-2
G:-1-1-1-1-1-1-1-1-0-0-0-0-0-0-0-0
C:--------------------------------
  "oh baby, you and me..."
D:------------------------------------
A:------------------------------------
F:------------------------------------
C:-0-0-0-0-0-0-0-0-0-0-0-0-0-0-3-3-3-3
G:-0-0-0-0-0-0-0-0-0-0-0-0-0-0-1-1-1-1
C:-0-0-0-0-0-0-0-0-0-0-0-0-0-0-------- 
 |_______________________________________|x6                                    
CHORUS 1

End: 
D:----------------------------------
A:----------------------------------
F:----------------------------------
C:-3-3-3-3-3-3-3-3-2-2-2-2-2-2-2-2-0
G:-1-1-1-1-1-1-1-1-0-0-0-0-0-0-0-0-0
C:---------------------------------0
  "oh baby, you and me..."

Some small parts are left out but it's just repeating some parts i've already put so just listen to the song and you'll get it.
Comments