System Of A Down - Prison Song Chords & Tabs

 

Prison Song Chords & Tabs

System Of A Down Chords & Tabs

Version: 1 Type: Tab 1 rating
1 star 2 stars 3 stars 4 stars 5 stars
comments

Prison Song Tab

   
System of a Down
Prison Song
Toxicity
Transcribed by:Tyler Sartin

Drop D tuning, down one step
C-G-C-F-A-D
						"They tried to build a prison"
D --------------------------------------------
A --------------------------------------------
F --------------------------------------------
C -0-------0-1-3-1-0-1-3-1-0-1-3-1-0-1-8-8-8-8
G -0-------0-1-3-1-0-1-3-1-0-1-3-1-0-1-8-8-8-8
C -0-------0-1-3-1-0-1-3-1-0-1-3-1-0-1-8-8-8-8

D -------------------------------------------------------------------------------
A -------------------------------------------------------------------------------
F -------------------------------------------------------------------------------
C --0-1-3-1-0-1-3-1-0-1-3-1-0-1-8-8-8-8----0-1-3-1-0-1-3-1-0-1-3-1--------8-8-8-8
G --0-1-3-1-0-1-3-1-0-1-3-1-0-1-8-8-8-8----0-1-3-1-0-1-3-1-0-1-3-1--------8-8-8-8
C --0-1-3-1-0-1-3-1-0-1-3-1-0-1-8-8-8-8----0-1-3-1-0-1-3-1-0-1-3-1--------8-8-8-8

[ Tab from: http://www.guitartabs.cc/tabs/s/system_of_a_down/prison_song_tab.html ]
D --------------------------------------------------------------
A --------------------------------------------------------------
F --------------------------------------------------------------
C -0-1-0-1-0-3-0---0-1-0-1-0-3-0---0-1-0-1-0-3-0---0-1-0-8-8-8-8
G -0-1-0-1-0-3-0---0-1-0-1-0-3-0---0-1-0-1-0-3-0---0-1-0-8-8-8-8
C -0-1-0-1-0-3-0---0-1-0-1-0-3-0---0-1-0-1-0-3-0---0-1-0-8-8-8-8

CHORUS

I'm not sure if this is right or not but its close

D ---6-------6-------6----- Just keep repeating until.. ---------------------------------
A -6---6---6---6---6---6---				---------------------------------
F -------------------------				---------------------------------
C -------------------------				---0-1-0-1-3-1---0-1-0-1-3-1-----
G -------------------------				---------------------------------
C -------------------------				---------------------------------



Thats pretty much it.  Those are all the chords.  Anything else contains the same chords so 
figure it out yourself!


Comments