System Of A Down - Prison Song Chords & Tabs

 

Prison Song Chords & Tabs

System Of A Down Chords & Tabs

Version: 2 Type: Bass Tab 0 ratings
1 star 2 stars 3 stars 4 stars 5 stars
comments

Prison Song Bass Tab

System of a Down
The Prison Song
Tabbed by Andrew Jones


F|-------|
C|-------|
G|-------|
C|---0---|

F|-----------------------------------|
C|-----------------------------------|
G|-----------------------------1111--|
C|-0-1-3-1-0-1-3-1-0-1-3-1-0-1-------| X2

F|-----------------------------------|
C|-----------------------------------|
G|-----------------------------1111--|
C|-0-1-3-1-0-1-3-1-0-1-3-1-----------|*slight change on the 3rd time*

F|------------------------------------|
C|------------------------------------|
G|------------------------------1111--|
C|---0103010-0103010-0103010-010------| X2

F|--------------------------------------------------------------------|
C|--------------------------------------------------------------------|
G|------------------------------1111----------------------------1111--|
C|--0-1-3-1-0-1-3-1-0-1-3-1-0-1------0103010-0103010-0103010-010------| 

Verse 1
F|--------------------|     F|--------------------|
C|--------------------|     C|--------------------|
G|--5565556555658565--|     G|--5---6---5-6-8-6---|
C|--------------------| X4  C|--------------------| X2

F|------------------------------------|
C|------------------------------------|
G|--556555655565856555655565----------|
C|---------------------------0103010--|

Chorus 1
F|------------------------------------|
C|------------------------------------|
G|------------------------------1111--|
C|---0103010-0103010-0103010-010------| X2

Verse 2
F|--------------------|     F|--------------------|
C|--------------------|     C|--------------------|
G|--556555655565856---|     G|--5---6---5-6-8-6---|
C|--------------------| X4  C|--------------------| X2
[ Tab from: http://www.guitartabs.cc/tabs/s/system_of_a_down/prison_song_btab_ver_2.html ]
F|------------------------------------|
C|------------------------------------|
G|--556555655565856555655565----------|
C|---------------------------0103010--|

Chorus 2
F|------------------------------------|
C|------------------------------------|
G|------------------------------1111--|
C|---0103010-0103010-0103010-010------| X2

F|--------------------------------------------------------------------|
C|--------------------------------------------------------------------|
G|------------------------------1111----------------------------1~----|
C|--0-1-3-1-0-1-3-1-0-1-3-1-0-1------0103010-0103010-0103010-010------|

Bridge
F|------------------------------------|
C|------------------------------------|
G|------------------------------1111--|
C|--0-0-0-0-0-0-0-0-0-0-0-0-0-0-------| X2

F|------------------------------------|
C|------------------------------------|
G|------------------------------1111--|
C|--0-0----00-0----00-0----00-0-------| X4

F|--------------------|     F|--------------------|     F|---------------|
C|--------------------|     C|--------------------|     C|---------------|
G|--------------------|     G|--5565556555658565--|     G|55655565-------|
C|--0---1---0-1-3-1---| X4  C|--------------------| X3  C|--------0103010|

Chorus 3
F|------------------------------------|
C|------------------------------------|
G|------------------------------1111--|
C|---0103010-0103010-0103010-010------| X2

F|-------------------------------------------------------------------------|
C|-------------------------------------------------------------------------|
G|------------------------------1111----------------------------1~----0~-5~|
C|--0-1-3-1-0-1-3-1-0-1-3-1-0-1------0103010-0103010-0103010-010-----------|
Comments