System Of A Down - Plastic Jesus Chords & Tabs

 

Plastic Jesus Chords & Tabs

System Of A Down Chords & Tabs

Version: 1 Type: Tab 0 ratings
1 star 2 stars 3 stars 4 stars 5 stars
comments

Plastic Jesus Tab

Artist: System Of A Down (SOAD)
Song: Plastic Jesus
Tuning: Drop C (As always)
Tabbed by: Adam Eugenio (LinkinPArkX13@hotmail.com) (AIM: X SiMPLiSTiK)


People say that this isn't SOAD, and they are somewhat right, 
System Of A Down did not in fact right this song.
But they did do a cover of it.

This may not be correct, if you can help me on it,
then email or IM me.
[ Tab from: http://www.guitartabs.cc/tabs/s/system_of_a_down/plastic_jesus_tab.html ]
Intro
|-------|--|--|
|-------|--|--|
|10-9-8-|11|--|
|10-9-8-|11|4-|
|8--7-6-|9-|4-|
|-------|--|4-|

|-----------------------------|
|-----------------------------|
|-----------------------------|
|-4-5-6-5---------------------|
|-4-5-6-5-sometimes-palm-mute-|
|-4-5-6-5---------------------|

|----------------|
|----------------|
|----------------|
|-4--4--4--4-7-3-| not sure if this is right
|-4--4--4--4-7-3-|
|-4--4--4--4-7-3-|

Comments