System Of A Down - Pictures Chords & Tabs

 

Pictures Chords & Tabs

System Of A Down Chords & Tabs

Version: 2 Type: Bass Tab 0 ratings
1 star 2 stars 3 stars 4 stars 5 stars
comments

Pictures Bass Tab

System of a Down
“PICTURES”
bassist: Shavo Odadjian


r – (let ring)

F  --------------------------
C  ----1-0-1-3---------------
G  --------------------------
C  --------------------------
       (X16)

F  --------------------------
C  --------------------------
G  --------------------------
C  ---1-0-1-3----------------
      (X8)

then…
F  ------------------------------------------------
C  ------------------------------------------------
G  ------------------------------------------------
C  ---1-0-1-3-----4-3-3-4---1-0-1-3---6-3-3-4------
       (X2)

F  ------------------------------------------------
C  ------------------------------------------------
G  ------------------------------------------------
C  -0-0-0-0-0-0-0------1-0-1-3-----4-3-3-4---------

F  --------------------------------------------------
C  --------------------------------------------------
G  --------------------------------------------------
C  -0-0-0-0-0-0-0------1-0-1-3-----6-3-3-4-----------
[ Tab from: http://www.guitartabs.cc/tabs/s/system_of_a_down/pictures_btab_ver_2.html ]
F  ----------------------------
C  ----------------------------
G  ----------------------------
C  -0-0-0-0-0-0-0--------------
       (X4)

F  -----------------------------------------
C  -----------------------------------------
G  -----------------------------------------
C  ---0----5-4----8-7----5-4----1--0--------

           
F  -----------------------------------
C  -----------------------------------
G  -----------------------------------
C  -1-0r----5-4r---8-7r---5-4r--------

F  ----------------------------------------------------------------------------
C  ----------------------------------------------------------------------------
G  ----------------------------------------------------------------------------
C  --1-1-0-0-0-0-0-0----5-5-4-4-4-4-4-4---8-8-7-7-7-7-7-7----5-5-4-4-4-4-4-4---

        ENDING
F  -----------------------------------------
C  -----------------------------------------
G  -----------------------------------------
C  ---0----5-4----8-7----5-0-0-0-0-0-0-0----

Then just listen to the song for the order…
Comments