System Of A Down - Peephole Chords & Tabs

 

Peephole Chords & Tabs

System Of A Down Chords & Tabs

Version: 7 Type: Tab 0 ratings
1 star 2 stars 3 stars 4 stars 5 stars
comments

Peephole Tab

   
Artist: System of a Down
Song: Peephole
Album: System of a Down
Tabbed by: Kim Mikal Torp aka The C@ncerM@n
Email: kim_mikal_torp@hotmail.com

Tuning: drop D, one step down (C G C F A D)

This tab is 100% accurate
The song rules

Intro:
|---------------------------------------------------|
|------3-----3-----3-----3-----3-----3-----3-----3--|
|----3-----3-----3-----3-----3-----3-----3-----3----|
|--5-----5------------------------------------------|
|--------------4-----5-----0-----0-----4-----5------|x2
|---------------------------------------------------|

Verse:
|------------------------------------------|
|--3-3--3-3--3-3--3-3--3-3--3-3--3-3--3-3--|(only the up-beats)
|--3-3--3-3--3-3--3-3--3-3--3-3--3-3--3-3--|
|------------------------------------------|
|------------------------------------------|
|------------------------------------------|

|---------------------------|
|---------------------------|
|---------------------------|
|--4-4-4-4-4-4-7-7-7-7-7-7--|
|--4-4-4-4-4-4-7-7-7-7-7-7--|x2
|--4-4-4-4-4-4-7-7-7-7-7-7--|

Break:
|--------------9-9-9-10-10-10-------------------9-9-9-10-10-10--|
|--8-8-8-8-8-8----------------10-10-10-10-10-10-----------------|
|---------------------------------------------------------------|
|---------------------------------------------------------------|
|---------------------------------------------------------------|
|---------------------------------------------------------------|

|--------------9-9-9-10-10-10-13-13-13-13-13-13-12-12-12-12-12-12--|
|--8-8-8-8-8-8--------------------------------------------x--x--x--|
|---------------------------------------------------------9--9--9--|
|------------------------------------------------------------------|
|------------------------------------------------------------------|
|------------------------------------------------------------------|

Chorus:
|-------------------|
|-------------------|
|------6-7-----6-7--|
|--5-5-6-7-7-7-6-7--|
|--5-5-4-5-7-7-4-5--|
|--5-5-----7-7------|

|-------------------|
|-------------------|
|------6-7----------|
|--5-5-6-7-7-7-5-5--|
|--5-5-4-5-7-7-5-5--|
|--5-5-----7-7-5-5--|


Intro:
|---------------------------------------------------|
|------3-----3-----3-----3-----3-----3-----3-----3--|
|----3-----3-----3-----3-----3-----3-----3-----3----|
|--5-----5------------------------------------------|
|--------------4-----5-----0-----0-----4-----5------|x2
|---------------------------------------------------|

Verse:
|------------------------------------------|
|--3-3--3-3--3-3--3-3--3-3--3-3--3-3--3-3--|(only the up-beats)
|--3-3--3-3--3-3--3-3--3-3--3-3--3-3--3-3--|
|------------------------------------------|
|------------------------------------------|
|------------------------------------------|

|---------------------------|
|---------------------------|
|---------------------------|
|--4-4-4-4-4-4-7-7-7-7-7-7--|
|--4-4-4-4-4-4-7-7-7-7-7-7--|x2
|--4-4-4-4-4-4-7-7-7-7-7-7--|

Break:
|--------------9-9-9-10-10-10-------------------9-9-9-10-10-10--|
|--8-8-8-8-8-8----------------10-10-10-10-10-10-----------------|
|---------------------------------------------------------------|
|---------------------------------------------------------------|
|---------------------------------------------------------------|
|---------------------------------------------------------------|

|--------------9-9-9-10-10-10-13-13-13-13-13-13-12-12-12-12-12-12--|
|--8-8-8-8-8-8--------------------------------------------x--x--x--|
|---------------------------------------------------------9--9--9--|
|------------------------------------------------------------------|
|------------------------------------------------------------------|
|------------------------------------------------------------------|
[ Tab from: http://www.guitartabs.cc/tabs/s/system_of_a_down/peephole_tab_ver_7.html ]
Chorus:
|-------------------|
|-------------------|
|------6-7-----6-7--|
|--5-5-6-7-7-7-6-7--|
|--5-5-4-5-7-7-4-5--|
|--5-5-----7-7------|

|-------------------|
|-------------------|
|------6-7----------|
|--5-5-6-7-7-7-6-6--|
|--5-5-4-5-7-7-6-6--|x2
|--5-5-----7-7-6-6--|

|---------------|
|---------------|
|--7-7-7-7-7-7--|
|--7-7-7-7-7-7--|
|--5-5-5-5-5-5--|
|---------------|

Interlude:
|---------------|
|--3-4-3h4p1-3--|
|---------------|
|---------------|
|---------------|x2
|---------------|

|---------------------------|
|--3-4-3h4p1-3-1------------|
|----------------3-2-3-2-0--|
|---------------------------|
|---------------------------|
|---------------------------|

|---------------------------|
|---------------------------|
|---------------------------|
|--4-4-4-4-4-4-7-7-7-7-7-7--|
|--4-4-4-4-4-4-7-7-7-7-7-7--|
|--4-4-4-4-4-4-7-7-7-7-7-7--|

|--10-11-10h11p8-10--|
|--------------------|
|--------------------|
|--------------------|
|--------------------|x2
|--------------------|

|--10-11-10h11p8-10-8----------------|
|---------------------11-10-11-10-8--|
|------------------------------------|
|------------------------------------|
|------------------------------------|
|------------------------------------|

|---------------------------|
|---------------------------|
|---------------------------|
|--4-4-4-4-4-4-7-7-7-7-7-7--|
|--4-4-4-4-4-4-7-7-7-7-7-7--|
|--4-4-4-4-4-4-7-7-7-7-7-7--|

Solo:
|-----10---10---10---10----------9---9---9---7---9-9-9b-------|
|--8-----8----8----8----8-8-8-7----7---7---7---7--------------|
|-------------------------------------------------------7-7b--|
|-------------------------------------------------------------|
|-------------------------------------------------------------|
|-------------------------------------------------------------|

|-----10---10---10---10---10------9---9---9---9---9-----8-8/10/8---7-7/9/7--|
|--8-----8----8----8----8----8-7----7---7---7---7---7-6----------5----------|
|---------------------------------------------------------------------------|
|---------------------------------------------------------------------------|
|---------------------------------------------------------------------------|
|---------------------------------------------------------------------------|

|-----10---10---10---10---10-------9---9---9-------9-------10---10---9b-9----9---9---9----|
|--8-----8----8----8----8----8-(7)---7---7---7-7-7------------8----8-----------7---7---7--|
|----------------------------------------------------7b-7b----------------7b--------------|
|-----------------------------------------------------------------------------------------|
|-----------------------------------------------------------------------------------------|
|-----------------------------------------------------------------------------------------|

|--9--9--9--9--9-9-9-9--9-9--9-9-9-9-9--|
|--7--7--7--7--7-7-7-7--7-7--7-7-7-7-7--|
|---------------------------------------|
|---------------------------------------|
|---------------------------------------|
|---------------------------------------|

Chorus:
|-------------------|
|-------------------|
|------6-7-----6-7--|
|--5-5-6-7-7-7-6-7--|
|--5-5-4-5-7-7-4-5--|
|--5-5-----7-7------|

|-----------------------------------|
|-----------------------------------|
|------6-7-------------6-6-6-7-7-7--|
|--5-5-6-7-7-7-7-7-7-7-6-6-6-7-7-7--|
|--5-5-4-5-7-7-7-7-7-7-4-4-4-5-5-5--|
|--5-5-----7-7-7-7-7-7--------------|
	   pm.....................

|-------------------|
|-------------------|
|------6-7-----6-7--|
|--5-5-6-7-7-7-6-7--|
|--5-5-4-5-7-7-4-5--|
|--5-5-----7-7------|

|---------------------|
|---------------------|
|------6-7-----6-7----|
|--5-5-6-7-7-7-6-7-5--|
|--5-5-4-5-7-7-4-5-5--|
|--5-5-----7-7-----5--|

This is my second SOAD tab.
It doesn't get better than this.
E-mail me with corrections, comments etc.
I'll be back...
Comments